tabbed by: Adam (wonderwog) 
This is a cool song from their new album Get Born, 
it's a bit short though. Everything is 98% right, 
except for the solo, which I couldn't get. 
Corrections, comments, etc to [email protected] 
Standard tuning -  
Intro: 
e||------------------------------------------ 
B||------------------------------------------ 
G||--44444--44444--44444--4444444--22-------- 
D||--44444--44444--44444--4444444--22-------- 
A||--22222--22222--22222--2222222--00-------- 
E||------------------------------------------ 
Main Riff: 
e||------------------------------------------ 
B||-------------------------     ------------ 
G||------------------------- x4  ------------ 
D||--5-7-5-7--5----2--------     ------------ 
A||--5-7-5-7--5----2------------------------- 
E||--3-5-3-5--3----0------------------------- 
Chorus: 
e||------------------------------------------ 
B||------------------------------------------ 
G||------------------------------------------ 
D||--7-7-5-7--77-7-----7-7-5-7--77-7--------- 
A||--7-7-5-7--77-7-----7-7-5-7--77-7--------- 
E||--5-5-3-5--55-5-----5-5-3-5--55-5--------- 
e||------------------------------------------ 
B||------------------------------------------ 
G||------------------------------------------ 
D||--5-5-3-5--55-5-----7-7-5-7--77-7--------- 
A||--5-5-3-5--55-5-----7-7-5-7--77-7--------- 
E||--3-3-1-3--33-3-----5-5-3-5--55-5--------- 
e||------------------------------------------ 
B||------------------------------------------ 
G||------------------------------------------ 
D||--5-5-3-5--10-7-5-7-5-2------------------- 
A||--5-5-3-5--10-7-5-7-5-2------------------- 
E||--3-3-1-3---8-5-3-5-3-0------------------- 
Bridge: 
e||------------------------------------------ 
B||------------------------------------------ 
G||------------------ just keep playing ----- 
D||---9--9--9--------  over and over   ----- 
A||---9--9--9-------------------------------- 
E||---7--7--7-------------------------------- 
	--------------------------------------------- 
	************* Song Progression ************** 
	--------------------------------------------- 
+ Intro 
+ Main Riff 
+ Verse 1: (play main riff) 
+ Chorus: 
+ Main Riff (but only twice, not four times) 
+ Verse 2 
+ Chorus 
+ Bridge  
+ Chorus 
+ end on  
	---------------------------------------------- 
	***************** enjoy! ********************* 
	----------------------------------------------