/  = Slide 
Intro: 
e|------------------------------------------------------| 
B|------------------------------------------------------| 
G|----------------7-7-----------------------------------|X2 
D|-7-7-5-7---5-5--5-5----7-7-5-7---5-5------------------| 
A|-5-5-3-5---3-3---------5-5-3-5---3-3--5-5-------------| 
E|--------------------------------------3-3-------------| 
Verse: 
e|------------------------------------------------------| 
B|------------------------------------------------------| 
G|-------------5----------------------------------------|X3 
D|--7-7--2/3-------5-5----------------------------------| 
A|--5-5------------3-3--5-5--7-7------------------------| 
E|----------------------3-3--5-5------------------------| 
"What's your name?" 
e|-----------------| 
B|-----------------| 
G|-----------------| 
D|--10-------------|X2 
A|--8----let ring--| 
E|-----------------| 
Chorus: 
e|-------------------------------------------------------------| 
B|---------------------------------------------10-----12-10----| 
G|-----------------------------5-5---5-5-5--10----10--------12-|X3 
D|--7-7---7-7-7--5-5---5-5-5---3-3---3-3-3---------------------| 
A|--5-5---5-5-5--3-3---3-3-3-----------------------------------| 
E|-------------------------------------------------------------| 
e|--------------------------------------------------------------------- 
B|--------------------------------------------------------------------- 
G|-----------------------------------5-5-5-5-5-5-5-5----7-let ring----- 
D|-7-7-7-7-7-7-7-7--5-5-5-5-5-5-5-5--3-3-3-3-3-3-3-3----5-------------- 
A|-5-5-5-5-5-5-5-5--3-3-3-3-3-3-3-3------------------------------------ 
E|--------------------------------------------------------------------- 
Bridge: 
G|----------------------------7-9-7-9--7-7-9-10-9--| 
D|-7---9---7-9---5-5-7-5-5-7--5-5-5-5--5-5-5--5-5--| 
A|-5---5---5-5---3-3-3-3-3-3-----------------------|X2 
E|-------------------------------------------------| 
End Chorus 
e|-------------------------------------------------------------| 
B|---------------------------------------------10-----12-10----| 
G|-----------------------------5-5---5-5-5--10----10--------12-|X2 
D|--7-7---7-7-7--5-5---5-5-5---3-3---3-3-3---------------------| 
A|--5-5---5-5-5--3-3---3-3-3-----------------------------------| 
E|-------------------------------------------------------------| 
e|--------------------------------------------------------------------- 
B|--------------------------------------------------------------------- 
G|-----------------------------------5-5-5-5-5-5-5-5-5-5-5-5-5-5-5-5-5- 
D|-7-7-7-7-7-7-7-7--5-5-5-5-5-5-5-5--3-3-3-3-3-3-3-3-3-3-3-3-3-3-3-3-3- 
A|-5-5-5-5-5-5-5-5--3-3-3-3-3-3-3-3------------------------------------ 
E|--------------------------------------------------------------------- 
e|--------------------------------------------------------------------- 
B|--------------------------------------------------------------------- 
G|-----------------------------------5-5-5-5-5-5-5-5----7-let ring----- 
D|-7-7-7-7-7-7-7-7--5-5-5-5-5-5-5-5--3-3-3-3-3-3-3-3----5-------------- 
A|-5-5-5-5-5-5-5-5--3-3-3-3-3-3-3-3------------------------------------ 
E|--------------------------------------------------------------------- 
Song Order 
Intro 
Verse 
What's Your Name? 
Chorus 
Intro 
Verse 
What's Your Name? 
Chorus 
Bridge 
Solo (Not Tabbed? 
(Drums) 
End Chorus 
Intro