Intro: 
E|------------------------------------------| 
B|------------------------------------------| 
G|-77777777777--7~-5~-4~--7~-9~-12~---------| 
D|-55555555555--5~-5~-5~--5~-5~-12~---------| 
A|------------------------------------------| 
E|------------------------------------------| 
Verso: 
E|-33---33-----------------33--------------------------------| 
B|-33---33-----------------33--------------------------------| 
G|-00---00--0-----------0~-00--0---------------7-------------| 
D|-00---00----3p0----------00----3p0-----------5--5353-------| 
A|-22---22--------3-1------22--------3-1---3~-----3131--555--| 
E|-33---33------------3----33------------3--------------333--| 
Pre-Refrão: 
E|--3-0--0-3--3-2-------2-0--0-3--3-2---------------| 
B|--3-2--2-3--3-3-------3-2--2-3--3-3---------------| 
G|--0-2--2-0--0-2-------2-2--2-0--0-2---------------| 
D|--0-2--2-0--0-0-------0-2--2-0--0-0---------------| 
A|--2-0--0-2--2-----------0--0-2--2-----------------| 
E|--3------3--3----------------3--3-----------------| 
Refrão: 
E|------22--0--------22--0-------22--0--------| 
B|-0-0--33--2---0-0--33--2--0-0--33--2--------| 
G|-1-1--22--2---1-1--22--2--1-1--22--2--------| 
D|-2-2--00--2---2-2--00--2--2-2--00--2--------| 
A|-2-2------0---2-2------0--2-2------0--------| 
E|-0-0----------0-0---------0-0---------------| 
No final toque