Australia 
GRINSPOON 
CHAMPION 
DROP D: 
INTRO 
E|--------------------------------------| 
B|--------------------------------------| 
G|----------5-----3----------------7----| 
D|--0-0--0--5--0--3--0--3--0-------7----| 
A|--0-0--0--3--0--1--0--3--0-------5----| 
D|--0-0--0-----0-----0--3--0--3H5-------| 
FILL1 
E|---------------------------------------| 
B|---------------------------------------| 
G|---------------------------------------| 
D|0--0--0-0--0--0--0--0-0--0--0--0-0-0-1-| NOT RIGHT JUST  
A|0--0--0-0--0--0--0--0-0--0--0--0-0-0-1-| LISTEN TO SONG 
D|0--0--0-0--0--0--0--0-0--0--0--0-0-0-1-| 
VERSE 
E|--------------------------------------------| 
B|--------------------------------------------| 
G|(7)~~---------------------------------------| 
D|-------x-x-x--------x-x-x---------x-x-x-----| 
A|-------x-x-x--------x-x-x---------x-x-x-----| 
D|-------x-x-x--------x-x-x---------x-x-x-----| 
FILL2 
E|--------------------------------------------| 
B|--------------------------------------------| 
G|--------------------------------------------| 
D|--0-0-0-0--3-3-3-3-3--5---------------------| 
A|--0-0-0-0--3-3-3-3-3--5---------------------| 
D|--0-0-0-0--3-3-3-3-3--5---------------------| 
FILL3 
E|-----------------------------------------| 
B|-----------------------------------------| 
G|-----------------------------------------| 
D|--0--3--5----5--3--2--7-5-3--------------| 
A|--0--3--5----5--3--2--7-5-3--------------| 
E|--0--3--5----5--3--2--7-5-3--------------| 
   "YOUR WORLD CHAMPION NOW"