Australia 
Author/Artist: Grinspoon 
Title: Damn Straight 
Album: New Detention 
Transcribed by: Stuart 
Email: [email protected] 
e|---------------------------------------------------------------------------- 
B|---------------------------------------------------------------------------- 
G|---------------------------------------------------------------------------- 
D|3-2-1-0-----3-2-1-0------------------------------3-2-1-0-------------------- 
A|3-2-1-0-----3-2-1-0------5-3-5-3-0--5-3-0-5-3-0--3-2-1-0-------------------- 
D|3-2-1-0-----3-2-1-0------------------------------3-2-1-0-------------------- 
intro 
e|---------------------------------------------------------------------------- 
B|---------------------------------------------------------------------------- 
G|---------------------------------------------------------------------------- 
D|-12-0-3-6-------------------12-10--6-3-------------------------------------- 
A|-12-0-3-6-------------------12-10--6-3-------------------------------------- 
D|-12-0-3-6-------------------12-10--6-3-------------------------------------- 
verse p.m          on the last time before the chorus 
e|---------------------------------------------------------------------------- 
B|---------------------------------------------------------------------------- 
G|----------------5----------------------------------------------------------- 
D|5-5-xx--3-3-x---5---------------------------3-2-1-0------------------------- 
A|5-5-xx--3-3-x---3----5-3-5-3-0-5-3-0-5-3-0--3-2-1-0------------------------- 
D|5-5-xx--3-3-x------0------------------------3-2-1-0------------------------- 
  chorus 
e|---------------------------------------------------------------------------- 
B|---------------------------------------------------------------------------- 
G|---------------------------------------------------------------------------- 
D|--------------------------3-2-1-0------------------------------------------- 
A|---5-3-5-3-0-5-3-0-5-3-0--3-2-1-0------------------------------------------- 
D|-0------------------------3-2-1-0------------------------------------------- 
e---------------------------------------------------------------------------- 
B|---------------------------------------------------------------------------- 
G|------5\7---5\7------------------------------------------------------------- 
D|-0-xx-5\7-xx5\7-xx--2h3-2-0------------------------------------------------- 
A|-0-xx-3\5-xx6\5-xx--2h3-2-0------------------------------------------------- 
D|-0-xx-----xx----xx--2h3-2-0------------------------------------------------- 
  after the 2nd chorus 
e|---------------------------------------------------------------------------- 
B|---------------------------------------------------------------------------- 
G|---------------------------------------------------------------------------- 
D|--10-12b--------------------------------------------------------14--15------ 
A|--8--10b--------------------------------------------------------12--13------ 
D|---------------------------------------------------------------------------- 
   there's one more chord that i can't figure out. but these pretty close