Australia 
 Title: DC X 3 (Dead Cat Times Three) 
Artist: Grinspoon 
 Album: Guide To Better Living 
Transcribed by Stealth ([email protected]). 
Dropped  Tuning 
e:--------------------------------- 
b:--------------------------------- 
g:--------------------------------- 
d:-3-3-3---5-5-5---3-3-3---5-5-5---                                       
a:-3-3-3---5-5-5---3-3-3---5-5-5--- 
D:-3-3-3---5-5-5---3-3-3---5-5-5--- 
e:--------------------------------- 
b:--------------------------------- 
g:--------------------------------- 
d:-3-0-0-5-0-0-6-0-0-5/12-12-12----                                       
a:-3-0-0-5-0-0-6-0-0-5/12-12-12---- 
D:-3-0-0-5-0-0-6-0-0-5/12-12-12---- 
PRE SOLO 
e:--------------------------------------- 
b:--------------------------------------- 
g:--------------------------------------- 
d:-3-0-0-5-0-0-6-0-0-5-0-0-3-------------       x4 
a:-3-0-0-5-0-0-6-0-0-5-0-0-3------------- 
D:-3-0-0-5-0-0-6-0-0-5-0-0-3------------- 
e:--------------------------------------- 
b:--------------------------------------- 
g:--------------------------------------- 
d:-3-0-0-5-0-0-6-0-0-5-0-0--3-0-3-0------       x4                                       
a:-3-0-0-5-0-0-6-0-0-5-0-0--3-0-3-0------ 
D:-3-0-0-5-0-0-6-0-0-5-0-0--3-0-3-0------ 
e:------------------------------------------------------------------ 
b:------------------------------------------------------------------ 
g:------------------------------------------------------------------ 
d:-777-888-999-10-10-10--11-12-13----------------------------------- 
a:-555-666-777--8--8--8---9-10-11-Then keep going to the 20th fret-- 
D:------------------------------------------------------------------