Australia 
   /\          ////////				*******************************************    
  //\\            ||				*    (tinpan.fortunecity.com/mingus/64)	  * 
 //--\\           ||				******************************************* 
//    \\ndrew's   ||abs 
Song : Dial Tone 
Artist : Grinspoon 
Album : Easy 
Tabbed By Andrew Schultz  ([email protected]) 
Tuning:  
Intro 
e  --------------------------------------------- 
b  -------0---------------------3----------------- 
g  ----2--3--2---2--------------2-------------------- 
d  --5--------------------------4----------------- 
a  --------------------------------------------- 
E  --------------------------------------------- 
e  --------------------------------------------- 
b  --------0------------------------------------- 
g  --0--2--3--------------------------------------- 
d  --------------------------------------------- 
a  --------------------------------------------- 
E  --------------------------------------------- 
Verse 
e  --------------------------------------------- 
b  --------------------------------------------- 
g  --------------------------------------------- 
d  --------------------------------------------- 
a  --------------------------------------------- 
E  --------------------------------------------- 
e  --------------------------------------------- 
b  --------------------------------------------- 
g  --------------------------------------------- 
d  --------------------------------------------- 
a  --------------------------------------------- 
E  --------------------------------------------- 
Chorus 
e  --------------------------------------------- 
b  --------------------------------------------- 
g  --------------------------------------------- 
d  --------------------------------------------- 
a  --------------------------------------------- 
E  --------------------------------------------- 
e  --------------------------------------------- 
b  --------------------------------------------- 
g  --------------------------------------------- 
d  --------------------------------------------- 
a  --------------------------------------------- 
E  --------------------------------------------- 
Outro 
e  --------------------------------------------- 
b  --------------------------------------------- 
g  --------------------------------------------- 
d  --------------------------------------------- 
a  --------------------------------------------- 
E  --------------------------------------------- 
e  --------------------------------------------- 
b  --------------------------------------------- 
g  --------------------------------------------- 
d  --------------------------------------------- 
a  --------------------------------------------- 
E  ---------------------------------------------