Australia 
Grinspoon - Lost Control 
Tabbed By: James Bartholomaeus [email protected] 
Submitted By: Todd baba [email protected] 
This is as close as i can get it. 
The recording of this song has 2 guitars, 
i tabbed it for one 
Dropped  Tuning (DADGBE) 
Intro  
E------------------------------------------------------------------- 
B------------------------------------------------------------------- 
G------------------------------------------------------------------- x 4 
D----00-00-00-00-0-5p4p3-0--3h4h5----------------------------------- 
A----00-00-00-00-0-5p4p3-0--3h4h5----------------------------------- 
D----00-00-00-00-0-5p4p3-0--3h4h5----------------------------------- 
Verse 
E------------------------------------------------------------------- 
B------------------------------------------------------------------- 
G------------------------------------------------------------------- 
D---0-3---0-3---0-3---0-3---5p4p3-0-3h4h5--------------------------- x2 
A---0-3---0-3---0-3---0-3---5p4p3-0-3h4h5--------------------------- 
D---0-3---0-3---0-3---0-3---5p4p3-0-3h4h5--------------------------- 
"times up yeah you should've known" 
Chorus X4  
E---------------------------------------|--------------------------------------- 
B---------------------------------------|--------------------------------------- 
G------------------------5-555----------|--------------------------------------- 
D---00-0/12-----33-333---5-555---555555-|----1010101010101010--1212121212121212- 
A---00-0/12-----33-333---3-333---555555-|----8-8-8-8-8-8-8-8---1010101010101010- 
D---00-0/12-----33-333-----------555555-|--------------------------------------- 
"We've already Lost Control" 
E------------------------------------------------------------------- 
B------------------------------------------------------------------- 
G------------------------------------------------------------------- X4  
D----00-00-00-00-0-5p4p3-0--3h4h5----------------------------------- 
A----00-00-00-00-0-5p4p3-0--3h4h5----------------------------------- 
D----00-00-00-00-0-5p4p3-0--3h4h5----------------------------------- 
Verse 2 
E------------------------------------------------------------------- 
B------------------------------------------------------------------- 
G------------------------------------------------------------------- x2 
D---0-3---0-3---0-3---0-3---5p4p3-0-3h4h5--------------------------- 
A---0-3---0-3---0-3---0-3---5p4p3-0-3h4h5--------------------------- 
D---0-3---0-3---0-3---0-3---5p4p3-0-3h4h5--------------------------- 
"can't we join an army of you" 
Chorus X4  
E---------------------------------------|--------------------------------------- 
B---------------------------------------|--------------------------------------- 
G------------------------5-555----------|--------------------------------------- 
D---00-0/12-----33-333---5-555---555555-|----1010101010101010--1212121212121212- 
A---00-0/12-----33-333---3-333---555555-|----8-8-8-8-8-8-8-8---1010101010101010- 
D---00-0/12-----33-333-----------555555-|--------------------------------------- 
"We've already Lost Control" 
Interlude 
E------------------------------------------------------------------- 
B------------------------------------------------------------------- 
G------------------------------------------------------------------- 
D-------------------------------------------------------------------  
A---------------------9h10h12-5------------------------------------- 
D----00-00-00-00-00--------------00-00-00-00--10h12p0---10h12p0----- 
E------------------------------------------------------------------- 
B------------------------------------------------------------------- 
G------------------------------------------------------------------- 
D----00-00-00-00-00--------------00-00-00-00------------------------  
A----00-00-00-00-00---9h10h12-5--00-00-00-00------------------------ 
D----00-00-00-00-00--------------00-00-00-00--10h12p0---10h12p0----- 
E------------------------------------------------------------------- 
B------------------------------------------------------------------- 
G------------------------------------------------------------------- 
D----00-00-00-00-00--------------00-00-00-00------------------------ Second Guitar is playing harmonics 
A----00-00-00-00-00---9h10h12-5--00-00-00-00------------------------ for the last 2 lines of interlude. 
D----00-00-00-00-00--------------00-00-00-00--10h12p0---10h12p0----- 
E------------------------------------------------------------------- 
B------------------------------------------------------------------- 
G------------------------------------------------------------------- 
D----00-00-00-00-00--------------00-00-00-00------------------------  
A----00-00-00-00-00---9h10h12-5--00-00-00-00------------------------ 
D----00-00-00-00-00--------------00-00-00-00--10h12p0---10h12p0----- 
Verse 3 
E------------------------------------------------------------------- 
B------------------------------------------------------------------- 
G------------------------------------------------------------------- 
D---0-3---0-3---0-3---0-3---5p4p3-0-3h4h5--------------------------- x2 
A---0-3---0-3---0-3---0-3---5p4p3-0-3h4h5--------------------------- 
D---0-3---0-3---0-3---0-3---5p4p3-0-3h4h5--------------------------- 
"No Fun Cause It's All Been Done" 
Chorus X4  
E---------------------------------------|--------------------------------------- 
B---------------------------------------|--------------------------------------- 
G------------------------5-555----------|--------------------------------------- 
D---00-0/12-----33-333---5-555---555555-|----1010101010101010--1212121212121212- 
A---00-0/12-----33-333---3-333---555555-|----8-8-8-8-8-8-8-8---9-9-9-9-9-9-9-9-- 
D---00-0/12-----33-333-----------555555-|--------------------------------------- 
"We've already Lost Control" 
E------------------------------------------------------------------- 
B------------------------------------------------------------------- 
G------------------------------------------------------------------- X4  
D----00-00-00-00-0-5p4p3-0--3h4h5----------------------------------- 
A----00-00-00-00-0-5p4p3-0--3h4h5----------------------------------- 
D----00-00-00-00-0-5p4p3-0--3h4h5-----------------------------------