Australia 
No Reason 
By Grinspoon 
Tabbed By : Travis Bernhard  
Solo By: Shannon Barnes and Travis Bernhard 
[email protected] 
Standard Tuning 
Intro Guitar 1 (Pat) 
-------------------------------- 
-------------------------------- 
---6---6----8---8---8--8--8--8 (bend these)   
-------------------------------- 
---4---4----6---6--------------- 
-------------------------------- 
Intro Guitar 2 (Phil) 
----------------------------------------- 
----------------------------------------- 
-----------------------------------------     
---6---6--------------------------------- 
---4---4----6--6---7---7---4--2--4--2---- 
------------4--4---5---5---2--0--2--0---- 
verse  Guitar 1 
-------------4---4---4---4---4---4---5---5---- 
-------------4---4---4---5---5---5---5----5--- 
-1---1---1---5---5---5---6---6---6---6-------- 
-2---2---2---6---6---6---6---6---6---7--------    
-2---2---2---6---6---6---4---4---4---7--------       
-0---0---0---4---4---4---------------5-------- 
PM  PM      PM  PM 
Guitar 2 on the verse sounds like an E then an  - just mess around with it, its  
only done at the start and once near the end of the verse 
End of Chorus 
Guitar 1 
-------------------- 
-------------------- 
--------------------  play each chord 8 times each 
-------------------- 
--7--9-------------- 
--5--7-------------- 
"I've got no reason" part  
-------------4---4---4---4---4---4---5---5---5-- 
-------------4---4---4---5---5---5---5---5---5-- 
-1---1---1---5---5---5---6---6---6---6---6---6-- 
-2---2---2---6---6---6---6---6---6---7---7---7--     
-2---2---2---6---6---6---4---4---4---7---7---7--       
-0---0---0---4---4---4---------------5---5---5-- 
Lead Part 
Solo w/ verse riff in background 
-----12----------11----------------------------- 
--12----12----12---12---12--14--12---10--10----- 
------------------------------------------------ 
------------------------------------------------ 
------------------------------------------------ 
------------------------------------------------ 
Guitar 2 
-------------4---4---4---4---4---4---5---5---- 
-------------4---4---4---5---5---5---5----5--- 
-1---1---1---5---5---5---6---6---6---6-------- 
-2---2---2---6---6---6---6---6---6---7--------    
-2---2---2---6---6---6---4---4---4---7--------       
-0---0---0---4---4---4---------------5-------- 
PM  PM      PM  PM 
Stop/Start part with drums on floor toms and build up (dont know what to call it) 
-----4---4---5-------- 
-----4---4---5-------- 
-1---5---5---6-------- 
-2---6---6---7--------     
-2---6---4---7--------       
-0---4-------5-------- 
then 
-------------4---4---4---4---4---4---5---5---5-- 
-------------4---4---4---5---5---5---5---5---5-- 
-1---1---1---5---5---5---6---6---6---6---6---6-- 
-2---2---2---6---6---6---6---6---6---7---7---7--       
-2---2---2---6---6---6---4---4---4---7---7---7--       
-0---0---0---4---4---4---------------5---5---5-- 
Order to Play 
Intro/Chorus   x 4 
Verse 1        x 6 then pickslide into chorus 
Chorus         x 3 
End of Chorus  x 1  
Verse 2        x 6 then pickslide into chorus 
Chorus         x 3  
End of Chorus  x 1 
No Reason Part x 4 
Solo           x 4 
Verse          x 2 
Stop/Start     x 1 for each part 
No Reason Part x 4 
Intro/Chorus   x 4