Song/
Band/ 
[email protected]
dropped d
Intro
|-----------------------------------------|
|-----------------------------------------|
|-----------------------------------------|
|-5-55-5-5--0--2----5-55-55-55--00-2-0-22-|
Chorus
|--------------------------------------------|
|--------------------------------------------|
|-------------------------10-1010-10-12-10-8-|
|-2-2-22-5-55-55-0-7-00-0--------------------|
Outro
|-------------|
|-------------|
|-------------|
|-2----5----0-|
YOUR MUM!!!!!!!!!!!