Tabbed By: (Strider) Daniel King  
Email: [email protected]  
Standard tuning  
 e 
~-vibrato 
b-bend 
p-pull off 
h-hammer on 
p.m.-palm mute 
r-release hand preventing a ring out 
d- dub-out 
/-Slide 
ACOUSTIC 
Intro 
e|-----------------------------------------------------------|  
B|-----------------------------------------------------------|  
G|---------0-------------0-------------0--------0--------0---| 
D|-----0-----0------0--------------0-----0-------------------| 
A|---9---9-----0-5----0----------5---5-----5-----------7-----| 
E|-7-----------------------5\3-3-------------3----3--5-------| 
e|----------------------------------------------------------|  
B|----------------------------------------------------------|  
G|---------0-------------0-------------0------------0-------| 
D|-----0-----0------0--------------0-----0--------0---0-----| 
A|---9---9-----0-5----0----------5---5-----0---5--------0---| 
E|-7-----------------------5\3-3-------------0--------------| 
Verse 1 
e|----------------------------------------------------------|  
B|----------------------------------------------------------|  
G|---------0-------------0--------------0-------------------| 
D|-----0-----0------0-------4-------0----------0--------0---| 
A|---9---9-----0-5----0-------5---5--------5----------7-----| 
E|-7----------------------------3------------3---3--5-------| 
e|----------------------------------------------------------|  
B|----------------------------------------------------------|  
G|---------0-------------0------------0----------0-0--------| 
D|-----0-----0-----0---0----4-------0---0------0-----0------| 
A|---9---9-----0-5---0--------5---5-------0--7---------7----| 
E|-7----------------------------3------------------------0--| 
e|------------------------------------------------------|  
B|------------------------------------------------------|  
G|---------0-------------0------------0---------0-------| 
D|-----0-----0-----0---0----4-------0---0-----0---------| 
A|---9---9-----0-5---0--------5---5---------5-----0-----| 
E|-7----------------------------3---------3---------3---| 
1,2,3,4,5... Once I caught a fish alive... 6,7,8,9,10  
But then I let him go again 
Oh why did you let him go because he bit my finger  
so you, won't you 
Post-Verse 
e|----------------------3--3-3-3--3-3-3-3-3---|  
B|----------------------3--3-3-3--3-3-3-3-3---|  
G|----------0-----------0--0-0-0--0-0-0-0-0---|(x2) 
D|------0-----0------0--0--0-0-0--0-0-0-0-0---| 
A|----5---5------0h2----x--x-x-x--x-x-x-x-x---| 
E|-0--------------------3--3-3-3--3-3-3-3-3---| 
It's all for you...it's all for you... 
Verse 2 (As with Verse 1) 
Sitting round thinking up something to do 
When you say lets just go and I say so too 
Quick before we get too old to 
Recognise these things we hold 
And we drove around with the moon on our backs 
Most started high, most I could ever lie...call you, won't you 
Pre-Chorus 
e|----------------------3--3-3-3--3-3-3-3-3---|  
B|----------------------3--3-3-3--3-3-3-3-3---|  
G|----------0-----------0--0-0-0--0-0-0-0-0---|(x2) 
D|------0-----0------0--0--0-0-0--0-0-0-0-0---| 
A|----5---5------0h2----x--x-x-x--x-x-x-x-x---| 
E|-0--------------------3--3-3-3--3-3-3-3-3---| 
e|-0--0-0-0--0-0-0-0-0--3--3-3-3--3-3-3-3-3---|  
B|-3--3-3-3--3-3-3-3-3--3--3-3-3--3-3-3-3-3---|  
G|-0--0-0-0--0-0-0-0-0--0--0-0-0--0-0-0-0-0---|(x2) 
D|-2--2-2-2--2-2-2-2-2--0--0-0-0--0-0-0-0-0---| 
A|-2--2-2-2--2-2-2-2-2--x--x-x-x--x-x-x-x-x---| 
E|----------------------3--3-3-3--3-3-3-3-3---| 
call you, won't you...It's all for you...it's all for you...it's all for you...it's all  
for you...it's all for you...it's all for...it's all for...it's all for you... 
Chorus 
e|--------------------------------------------------------|  
B|--------------------------------------------------------|  
G|-0--0-0--0-0-0-0-0-0-0-0-0--0--0-0--0-0-0-0-0-0-0-0-0---|(x3) 
D|-0--0-0--0-0-0-0-0-0-0-0-0--0--0-0--0-0-0-0-0-0-0-0-0---| 
A|-9--9-9--9-9-9-9-9-9-9-9-9--5--5-5--5-5-5-5-5-5-5-5-5---| 
E|-7--7-7--7-7-7-7-7-7-7-7-7--3--3-3--3-3-3-3-3-3-3-3-3---| 
1,2,3,4,5...Once I caught a fish alive...6,7,8,9,10  
But then I let him go again 
Oh why did you let him go because he bit my finger so won't you 
Outro 
e|-----------------------3--3-3-3--3-3-3-3-3---|  
B|-----------------------3--3-3-3--3-3-3-3-3---|  
G|----------0------------0--0-0-0--0-0-0-0-0---|(x2) 
D|------0-----0-------0--0--0-0-0--0-0-0-0-0---| 
A|----5---5-----0-0h2----x--x-x-x--x-x-x-x-x---| 
E|-0---------------------3--3-3-3--3-3-3-3-3---| 
e|-0--0-0-0--0-0-0-0-0--3--3-3-3--3-3-3-3-3----|  
B|-3--3-3-3--3-3-3-3-3--3--3-3-3--3-3-3-3-3----|  
G|-0--0-0-0--0-0-0-0-0--0--0-0-0--0-0-0-0-0----|(x2) 
D|-2--2-2-2--2-2-2-2-2--0--0-0-0--0-0-0-0-0----| 
A|-2--2-2-2--2-2-2-2-2--x--x-x-x--x-x-x-x-x----| 
E|----------------------3--3-3-3--3-3-3-3-3----| 
e|-0--0-0-0--0-0-0-0-0--3----------------------|  
B|-3--3-3-3--3-3-3-3-3--3----------------------|  
G|-0--0-0-0--0-0-0-0-0--0----------------------|  
D|-2--2-2-2--2-2-2-2-2--0----------------------| 
A|-2--2-2-2--2-2-2-2-2--x----------------------| 
E|----------------------3----------------------| 
It's all for you...you, it's all for you...it's all for you...you, it's all for...it's all  
for...it's all for you...it's all for you...it's all for you...  
Song Structure 
Intro 
Verse 1 
Post-Verse 
Verse 2 
Pre-Chorus  
Chorus 
Outro