Tabbed By: (Strider) Daniel King  
Email: [email protected]  
Dropped  tuning  
~-vibrato 
b-bend 
p-pull off 
h-hammer on 
p.m.-palm mute 
r-release hand preventing a ring out 
d- dub-out 
/-Slide 
DISTORTION THROUGHOUT EXCEPT WHERE NOTED 
Intro 
(~CLEAN~) 
e|--------------------------------------------------|  
B|--------------------------------------------------|  
G|----------------------------9-7-------4h5--4h5----| 
D|-----3-----5-----9------7--------9----------------| 
A|---3-----5-----7------7---7--------7--------------| 
D|-3-----5-----7------7-----------------------------| 
Verse 1 
(~CLEAN~) 
e|-------------------------------------------------|  
B|-------------------------------------------------|  
G|----------------------------9-7-------4h5--4h5---|(X4) 
D|-----3-----5-----9------7--------9---------------| 
A|---3-----5-----7------7---7--------7-------------| 
D|-3-----5-----7------7----------------------------| 
e|---------------------|  
B|---------------------|  
G|---------------------|  
D|-----3-----5-----9---| 
A|---3-----5-----7-----| 
D|-3-----5-----7-------| 
You try to be 
Try to feel 
Try to let go 
Try to be real, it was good 
Yeah I had fun 
For a little while there 
Thought you were the one... 
Chorus (x2) 
e|-3-3-3-3-3-3--3-3-3-3-3---------------------------|  
B|-3-3-3-3-3-3--3-3-3-3-3--5-5-5-5-5-5--5-5-5-5-5---|  
G|-5-5-5-5-5-5--5-5-5-5-5--7-7-7-7-7-7--7-7-7-7-7---| 
D|-5-5-5-5-5-5--5-5-5-5-5--5-5-5-5-5-5--5-5-5-5-5---| 
A|-3-3-3-3-3-3--3-3-3-3-3--5-5-5-5-5-5--5-5-5-5-5---| 
D|-------------------------5-5-5-5-5-5--5-5-5-5-5---| 
e|--------------------------------------------------| 
B|-3-3-3-3-3-3--3-3-3-3-3--3-3-3-3-3-3--3-3-3-3-3---|  
G|-5-5-5-5-5-5--5-5-5-5-5--5-5-5-5-5-5--5-5-5-5-5---| 
D|-5-5-5-5-5-5--5-5-5-5-5--5-5-5-5-5-5--5-5-5-5-5---| 
A|-3-3-3-3-3-3--3-3-3-3-3--3-3-3-3-3-3--3-3-3-3-3---| 
D|-3-3-3-3-3-3--3-3-3-3-3--3-3-3-3-3-3--3-3-3-3-3---| 
Say what you wanna say, what you wanna say, say what you wanna say, what you wanna say to me (say what you wanna say) 
Can I come around 
Say what you wanna say, what you wanna say, say what you wanna say, 
say it to me (say what you wanna say) 
Can I come around 
Pre-Verse (As with Intro sequence, x 2) 
Verse 2 (As with Verse 1) 
You try to be 
Try to feel 
Try to let go 
Try to be real, and it was good 
Yeah I had fun 
For a little while there 
Thought you were the one 
Chorus (As with Chorus sequence, x2) 
Say what you wanna say, what you wanna say, say what you wanna say, what you wanna say to me (say what you wanna say) 
Can I come around 
Say what you wanna say, what you wanna say, say what you wanna say, 
say it to me (say what you wanna say) 
Can I come around, can I come around , can I come around, can I come around, can I come around...(x2) 
Bridge (x3, slight variation) 
(~Guitar 1~ DISTORTION) 
e|------------------------------------------------|  
B|-8-8-8-8-8-8----8---8-8-8-8-8-8-8----8-8----8---|  
G|-9-9-9-9-9-9----9---9-9-9-9-9-9-9----9-9----9---| 
D|-9-9-9-9-9-9/10-9---9-9-9-9-9-9-9/10-9-9/10-9---| 
A|-7-7-7-7-7-7----7---7-7-7-7-7-7-7----7-7----7---| 
D|-7-7-7-7-7-7----7---7-7-7-7-7-7-7----7-7----7---| 
e|-----------3-3-3-3------3-3-3-3---------3-----3---| 
B|-----------3-3-3-3--3-3-3-3-3-3-3-3-3-3-3-3-3-3---|  
G|-5-5-5-5-5-5-5-5-5--5-5-5-5-5-5-5-5-5-5-5-5-5-5---| 
D|-5-5-5-5-5-5-5-5-5--5-5-5-5-5-5-5-5-5-5-5-5-5-5---| 
A|-3-3-3-3-3-3-3-3-3--3-3-3-3-3-3-3-3-3-3-3-3-3-3---| 
D|-3-3-3-3-3-3-3-3-3--3-3-3-3-3-3-3-3-3-3-3-3-3-3---| 
(Guitar 2~ CLEAN) 
e|----------------------------------------------|  
B|----------------------------------------------|  
G|-------9----10-9-------12-9-------12-9-10-9---|(x2) 
D|-10-10---10------10-10------10-10-------------| 
A|----------------------------------------------| 
D|----------------------------------------------| 
Hold me tight through the after-glow 
Is right through the after for me 
Hold me tight through the after glow, 
Is right through the after for me 
For me, for me, for me... 
Post Bridge (As with Chorus) 
Why don't you say what you mean 
Say what you mean 
Why don't you say what you mean 
Say what you mean 
Why don't you say what you mean 
Just, say what you mean 
Why don't you say what you mean 
1234... 
Interlude 
(CLEAN) 
e|-3-3-3-3-3-3--3-3-3-3-3---------------------------|  
B|-3-3-3-3-3-3--3-3-3-3-3--5-5-5-5-5-5--5-5-5-5-5---|  
G|-5-5-5-5-5-5--5-5-5-5-5--7-7-7-7-7-7--7-7-7-7-7---| 
D|-5-5-5-5-5-5--5-5-5-5-5--5-5-5-5-5-5--5-5-5-5-5---| 
A|-3-3-3-3-3-3--3-3-3-3-3--5-5-5-5-5-5--5-5-5-5-5---| 
D|-------------------------5-5-5-5-5-5--5-5-5-5-5---| 
e|--------------------------------------------------| 
B|-3-3-3-3-3-3--3-3-3-3-3--3-3-3-3-3-3--3-3-3-3-3---|  
G|-5-5-5-5-5-5--5-5-5-5-5--5-5-5-5-5-5--5-5-5-5-5---| 
D|-5-5-5-5-5-5--5-5-5-5-5--5-5-5-5-5-5--5-5-5-5-5---| 
A|-3-3-3-3-3-3--3-3-3-3-3--3-3-3-3-3-3--3-3-3-3-3---| 
D|-3-3-3-3-3-3--3-3-3-3-3--3-3-3-3-3-3--3-3-3-3-3---| 
e|-3-3-3-3-3-3--3-3-3-3-3---------------------------|  
B|-3-3-3-3-3-3--3-3-3-3-3--5-5-5-5-5-5--5-5-5-5-5---|  
G|-5-5-5-5-5-5--5-5-5-5-5--7-7-7-7-7-7--7-7-7-7-7---| 
D|-5-5-5-5-5-5--5-5-5-5-5--5-5-5-5-5-5--5-5-5-5-5---| 
A|-3-3-3-3-3-3--3-3-3-3-3--5-5-5-5-5-5--5-5-5-5-5---| 
D|-------------------------5-5-5-5-5-5--5-5-5-5-5---| 
(DISTORTION) 
e|--------------------------------------------------| 
B|--------------------------------------------------|  
G|----------------5-5-5-5-5-5-5---------------------| 
D|-5-5-5-5-5-5-5--5-5-5-5-5-5-5---------------------| 
A|-3-3-3-3-3-3-3--3-3-3-3-3-3-3---------------------| 
D|-3-3-3-3-3-3-3--3-3-3-3-3-3-3---------------------| 
  p.m.........../ 
Say what you wanna say, what you wanna say, say what you wanna say, what you wanna say to me 
Can I come around 
Say what you wanna say, what you wanna say, say what you wanna say, 
say it to me 
Outro (x4) 
e|-3-3-3-3-3--3-3-3-3-3-3-3-3-3-3-----------------------------------|  
B|-3-3-3-3-3--3-3-3-3-3-3-3-3-3-3--5-5-5-5-5--5-5-5-5-5-5-5-5-5-5---|  
G|-5-5-5-5-5--5-5-5-5-5-5-5-5-5-5--7-7-7-7-7--7-7-7-7-7-7-7-7-7-7---| 
D|-5-5-5-5-5--5-5-5-5-5-5-5-5-5-5--5-5-5-5-5--5-5-5-5-5-5-5-5-5-5---| 
A|-3-3-3-3-3--3-3-3-3-3-3-3-3-3-3--5-5-5-5-5--5-5-5-5-5-5-5-5-5-5---| 
D|---------------------------------5-5-5-5-5--5-5-5-5-5-5-5-5-5-5---| 
e|------------------------------------------------------------------| 
B|-3-3-3-3-3--3-3-3-3-3-3-3-3-3-3--3-3-3-3-3--3-3-3-3-3-3-3-3-3-3---|  
G|-5-5-5-5-5--5-5-5-5-5-5-5-5-5-5--5-5-5-5-5--5-5-5-5-5-5-5-5-5-5---| 
D|-5-5-5-5-5--5-5-5-5-5-5-5-5-5-5--5-5-5-5-5--5-5-5-5-5-5-5-5-5-5---| 
A|-3-3-3-3-3--3-3-3-3-3-3-3-3-3-3--3-3-3-3-3--3-3-3-3-3-3-3-3-3-3---| 
D|-3-3-3-3-3--3-3-3-3-3-3-3-3-3-3--3-3-3-3-3--3-3-3-3-3-3-3-3-3-3---| 
e|---------------| 
B|---------------|  
G|-5-------------| 
D|-5-let ring----| 
A|-3-------------| 
D|-3-------------| 
Can I come, can I come around, can I come around,  
can I come around...  
Song Structure 
Intro 
Verse 1 
Chorus 
Pre-Verse 
Verse 2 
Chorus 
Bridge 
Post Bridge 
Interlude  
Outro