Part 1: 
e|----------------2------2----3------3---------------------- 
A|--0-1----0-1------3------3----3------3-------------------- 
B|---------------------------------------------------------- 
G|--2---2--2---0--0---0--2----2---2--2---2------------------ 
D|---------------------------------------------------------- 
E|---------------------------------------------------------- 
e|----------0----------------------------------------------- 
A|--3-3-------1--------------------------------------------- 
B|------0-------0------------------------------------------- 
G|--------2------------------------------------------------- 
D|--2-3-----3----------------------------------------------- 
E|---------------------------------------------------------- 
Repeat 4 times 
Part 2: 
e|---------------------------------------------------------- 
A|--1------1------3------3------2------2-------------------- 
B|----0------0------0------0------2------2------------------ 
G|---------------------------------------------------------- 
D|--3---3--3---3--2---2--2---2--0---0--0---0---------------- 
E|---------------------------------------------------------- 
e|---------------------------------------------------------- 
A|--2--3------3--------------------------------------------- 
B|-------0------0------------------------------------------- 
G|---------------------------------------------------------- 
D|--2--3---3--3---3----------------------------------------- 
E|---------------------------------------------------------- 
Repeat 2 times 
Part 1, 2 times 
Part 2, 2 times 
Solo 
e|---------------------------------------------------2---2-- 
A|--5-7-5--4-0--3-5-3--2----1---1---1---1----------0-0-0---- 
B|-----------------------2----0---0---0---0------2---------- 
G|---------------------------------------------------------- 
D|--7-7-7--6-6--5-5-5--4-4--3-------3--------2-2------------ 
E|---------------------------------------------------------- 
e|---------------------------------------------------------- 
A|--5---0-5-7--3---0-3------5---0-5-7--3---0-3-------------- 
B|----0----------0-----0------0----------0-----0------------ 
G|---------------------------------------------------------- 
D|--7-----7-7--5-----5------7-----7-7--5-----5-------------- 
E|---------------------------------------------------------- 
e|---------------------------------------------------2---2-- 
A|--5-7-5--4-0--3-5-3--2----1---1---1---1----------0-0-0---- 
B|-----------------------2----0---0---0---0------2---------- 
G|---------------------------------------------------------- 
D|--7-7-7--6-6--5-5-5--4-4--3-------3--------2-2------------ 
E|---------------------------------------------------------- 
Part 1, 2 times 
Part 2, 4 times 
Lyrics: 
(Play part 1) 
Play part 1 
Astral boy, you're so high 
Will you ever come down? 
Soaring over everyone 
You're bigger than the stars 
Play part 2 
Ooooh ooooh ooooh ooooh... 
Ahhhh ahhhh ahhhh ahhhh... 
Play part 1 
Astral boy you're so hot 
Will you ever melt? 
Flying so close to the sun 
Now you know how I felt 
Play part 2 
Ooooh ooooh ooooh ooooh... 
Ahhhh ahhhh ahhhh ahhhh... 
(Play part 3) 
Play part 1 
Now you're cold you're so alone 
Sitting on the floor 
Hard wood boards and abstract toys 
Suggest you to the door 
Play part 2 
Ooooh ooooh ooooh ooooh... 
Ahhhh ahhhh ahhhh ahhhh... 
Ooooh ooooh ooooh ooooh... 
Ahhhh ahhhh ahhhh ahhhh... 
(here's an easier way to play the solo bit) 
e|--0-2-0---------0----------------------------------2---2-- 
A|---------4-0--3---3--2----1---1---1---1----------0-0-0---- 
B|-----------------------2----0---0---0---0------2---------- 
G|--2-2-2--1-1--0-0-0--------------------------------------- 
D|---------------------4-4--3-------3--------2-2------------ 
E|----------------------------------------------------------