Artist: Killing Heidi 
Tabbed By: (Strider) Daniel King  
Email: [email protected]  
Dropped D Tuning with modified G 
D A D F# B e 
      ^ G is tuned down 1 one semi-tone to F# 
~-vibrato 
b-bend 
p-pull off 
h-hammer on 
p.m.-palm mute 
r-release hand preventing a ring out 
d- dub-out 
/-Slide 
ACOUSTIC 
Intro 
e |----------------------------------------------------------|  
B |-3----------------------0---------------------------------|  
F#|----0-0-0-0-0--3-3-3/8--8---------------------------------| 
D |----4-4-4-4-4--0h2-2/7--7----2-2-2-2--5-5-5-5-5-7-7-7-7---| 
A |---------------0-0-0-------0-2-2-2-2--5-5-5-5-5-7-7-7-7---| 
D |---------------------------0-2-2-2-2--5-5-5-5-5-7-7-7-7---| 
e |-----------------------------------------------------|  
B |-------------------0---------------------------------|  
F#|-0-0-0-0--3-3-3/8--8---------------------------------| 
D |-4-4-4-4--0h2-2/7--7----2-2-2-2--5-5-5-5-5-7-7-7-7---| 
A |----------0-0-0-------0-2-2-2-2--5-5-5-5-5-7-7-7-7---| 
D |----------------------0-2-2-2-2--5-5-5-5-5-7-7-7-7---|  
Verse 1 
e |---------0------------------------0-----------0----|  
B |---------0---------2p0-3----------0-----------0----|  
F#|-------0-----------0---0--------0-----------0------|(x2) 
D |-0---0------0---0-------------0-----------0--------| 
A |-0h2--------2p0-0---------0h2--------5-5-----------| 
D |--------------------------0h2--------5-5-----------| 
e |-----------------------------------------------------|  
B |-------------------0---------------------------------|  
F#|-0-0-0-0--3-3-3/8--8---------------------------------|(x2) 
D |-4-4-4-4--0h2-2/7--7----2-2-2-2--5-5-5-5-5-7-7-7-7---| 
A |----------0-0-0-------0-2-2-2-2--5-5-5-5-5-7-7-7-7---| 
D |----------------------0-2-2-2-2--5-5-5-5-5-7-7-7-7---|  
Take it all, take my stuff  
Cause this time don't want it to be my fault baby  
Now I know, seen enough  
I've seen enough to know that I've had enough maybe.  
Now I'm alone, I'm here with me  
Got clarity and baby I can see through your bullshit  
I wanna be alone with me and all the broken down pieces  
Cause no-one can fix it  
Chorus 
e |-0---0---0--0--0--0---0--0---0--0--0--0---0--0-----0---0--0----|  
B |-0---0---0--0--0--0---0--0---0--0--0--0---0--0-----0---0--0----|  
F#|-10--10--10-10-10-10--10-10--10-10-10-10--10-10/12-12--12-12---| 
D |-9---9---9--9--9--9---9--9---9--9--9--9---9--9 /11-11--11-11---| 
A |-7---7---7--7--7--7---7--7---7--7--7--7---7--7 /9--9---9--9----| 
D |-7---7---7--7--7--7---7--7---7--7--7--7---7--7--9--9---9--9----| 
e |-0--0--0-0-0-0-0--0-0-0-0-0--0-0-0-0-0--0-0--------------------|  
B |-0--0--0-0-0-0-0--0-0-0-0-0--0-0-0-0-0--0-0--------------------|  
F#|-8--8--8-8-8-8-8--8-8-8-8-8--8-8-8-8-8--8-8--------------------| 
D |-7--7--7-7-7-7-7--7-7-7-7-7--7-7-7-7-7--7-7--------------------| 
A |-5--5--5-5-5-5-5--5-5-5-5-5--5-5-5-5-5--5-5--------------------| 
D |-5--5--5-5-5-5-5--5-5-5-5-5--5-5-5-5-5--5-5--------------------| 
e |-0--0--0--0---0--0--0--0---0--0--0--0--0--0---0--0-------------|  
B |-0--0--0--0---0--0--0--0---0--0--0--0--0--0---0--0-------------|  
F#|-10-10-10-10--10-10-10-10--10-10-10-10-10-10--10-10/12---------| 
D |-9--9--9--9---9--9--9--9---9--9--9--9--9--9---9--9 /11---------| 
A |-7--7--7--7---7--7--7--7---7--7--7--7--7--7---7--7 /9----------| 
D |-7--7--7--7---7--7--7--7---7--7--7--7--7--7---7--7--9----------| 
e |-0---0--0---0--0--0-0-0-0-0--0-0-0-0-0--0-0-0-0-0--0-0---------|  
B |-0---0--0---0--0--0-0-0-0-0--0-0-0-0-0--0-0-0-0-0--0-0---------|  
F#|-12--12-12--5--5--5-5-5-5-5--5-5-5-5-5--5-5-5-5-5--5-5---------| 
D |-11--11-11--4--4--4-4-4-4-4--4-4-4-4-4--4-4-4-4-4--4-4---------| 
A |-9---9--9---2--2--2-2-2-2-2--2-2-2-2-2--2-2-2-2-2--2-2---------| 
D |-9---9--9---2--2--2-2-2-2-2--2-2-2-2-2--2-2-2-2-2--2-2---------| 
Buttup, buttup ba da da etc...hey hey  
Buttup, buttup ba da da etc...hey hey 
Verse 2 (As with Verse 1) 
Take it all, take my stuff  
I guess cause this time don't want it to be my fault baby  
Now I know, seen enough  
I've seen enough to know that I know you  
Maybe.  
Now I'm alone, I'm here with me  
Got clarity and baby I can see through the bullshit  
I wanna be alone with me and all the broken down pieces  
Cause no-one can fix it 
Chorus (As with Chorus) 
Buttup, buttup ba da da etc...hey hey  
Buttup, buttup ba da da etc...hey hey 
Buttup, buttup ba da da etc...hey hey  
Bridge 
e |-0--0--0-0-0-0--0-0--0-0-0-0--0-0----0---0--0-----|  
B |-0--0--0-0-0-0--0-0--0-0-0-0--0-0----0---0--0-----|  
F#|-8--8--8-8-8-8--8-8--8-8-8-8--8-8/10-10--10-10----| 
D |-7--7--7-7-7-7--7-7--7-7-7-7--7-7/9--9---9--9-----| 
A |-5--5--5-5-5-5--5-5--5-5-5-5--5-5/7--7---7--7-----| 
D |-5--5--5-5-5-5--5-5--5-5-5-5--5-5-7--7---7--7-----| 
e |-0--0--0-0-0-0-0--0-0-0-0-0--0-0-0-0-0--0-0-------|  
B |-0--0--0-0-0-0-0--0-0-0-0-0--0-0-0-0-0--0-0-------|  
F#|-5--5--5-5-5-5-5--5-5-5-5-5--5-5-5-5-5--5-5-------| 
D |-4--4--4-4-4-4-4--4-4-4-4-4--4-4-4-4-4--4-4-------| 
A |-2--2--2-2-2-2-2--2-2-2-2-2--2-2-2-2-2--2-2-------| 
D |-2--2--2-2-2-2-2--2-2-2-2-2--2-2-2-2-2--2-2-------| 
e |-0---0---0--0--0--0---0--0---0--0--0--0---0--0--0--0----|  
B |-0---0---0--0--0--0---0--0---0--0--0--0---0--0--0--0----|  
F#|-10--10--10-10-10-10--10-10--10-10-10-10--10-10-10-10---| 
D |-9---9---9--9--9--9---9--9---9--9--9--9---9--9 -9--9----| 
A |-7---7---7--7--7--7---7--7---7--7--7--7---7--7--7--7----| 
D |-7---7---7--7--7--7---7--7---7--7--7--7---7--7--7--7----| 
e |-0--0--0--0--0--0--0--0---0--0--0--0--0--0--0--0--------|  
B |-0--0--0--0--0--0--0--0---0--0--0--0--0--0--0--0--------|  
F#|-13-13-13-13-13-13-13-13--12-12-12-12-12-12-12-12-------| 
D |-12-12-12-12-12-12-12-12--11-11-11-11-11-11-11-11-------| 
A |-10-10-10-10-10-10-10-10--9--9--9--9--9--9--9--9--------| 
D |-10-10-10-10-10-10-10-10--9--9--9--9--9--9--9--9--------| 
e |-0--0--0--0--0--0--0--0---0--0--0--0--0--0--0--0--------|  
B |-0--0--0--0--0--0--0--0---0--0--0--0--0--0--0--0--------|  
F#|-10-10-10-10-10-10-10-10--10-10-10-10-10-10-10-10-------|(x2, incl. 
D |-9--9--9--9--9--9--9--9---9--9--9--9--9--9--9--9--------| bar above) 
A |-7--7--7--7--7--7--7--7---7--7--7--7--7--7--7--7--------| 
D |-7--7--7--7--7--7--7--7---7--7--7--7--7--7--7--7--------| 
e |-0--0--0--0--0--0--0--0---0--0--0--0--0--0--0--0--------|  
B |-0--0--0--0--0--0--0--0---0--0--0--0--0--0--0--0--------|  
F#|-10-10-10-10-10-10-10-10--10-10-10-10-10-10-10-10-------| 
D |-9--9--9--9--9--9--9--9---9--9--9--9--9--9--9--9--------| 
A |-7--7--7--7--7--7--7--7---7--7--7--7--7--7--7--7--------| 
D |-7--7--7--7--7--7--7--7---7--7--7--7--7--7--7--7--------| 
e |-0--0--0--0--0--0--0--0---0-0-0-0-0-0-0-0---|  
B |-0--0--0--0--0--0--0--0---0-0-0-0-0-0-0-0---|  
F#|-10-10-10-10-10-10-10-10--8-8-8-8-8-8-8-8---| 
D |-9--9--9--9--9--9--9--9---7-7-7-7-7-7-7-7---| 
A |-7--7--7--7--7--7--7--7---5-5-5-5-5-5-5-5---| 
D |-7--7--7--7--7--7--7--7---5-5-5-5-5-5-5-5---| 
e |-0-0-0-0-0-0-0-0--0-0-0-0-0-0-0-0-----------|  
B |-0-0-0-0-0-0-0-0--0-0-0-0-0-0-0-0-----------|  
F#|-6-6-6-6-6-6-6-6--5-5-5-5-5-5-5-5-----------| 
D |-5-5-5-5-5-5-5-5--4-4-4-4-4-4-4-4-----------| 
A |-3-3-3-3-3-3-3-3--2-2-2-2-2-2-2-2-----------| 
D |-3-3-3-3-3-3-3-3--2-2-2-2-2-2-2-2-----------| 
e |-0-0-0-0-0-0-0-0--0-0-0-0-0-0-0-0-----------|  
B |-0-0-0-0-0-0-0-0--0-0-0-0-0-0-0-0-----------|  
F#|-3-3-3-3-3-3-3-3--3-3-3-3-3-3-3-3-----------| 
D |-2-2-2-2-2-2-2-2--2-2-2-2-2-2-2-2-----------| 
A |-0-0-0-0-0-0-0-0--0-0-0-0-0-0-0-0-----------| 
D |-0-0-0-0-0-0-0-0--0-0-0-0-0-0-0-0-----------| 
Verse 3 (x4) 
e |-----------------------------------------------------|  
B |-------------------0---------------------------------|  
F#|-0-0-0-0--3-3-3/8--8---------------------------------|(x4) 
D |-4-4-4-4--0h2-2/7--7----2-2-2-2--5-5-5-5-5-7-7-7-7---| 
A |----------0-0-0-------0-2-2-2-2--5-5-5-5-5-7-7-7-7---| 
D |----------------------0-2-2-2-2--5-5-5-5-5-7-7-7-7---|  
Take it all, take my stuff  
I guess cause this time don't want it to be my fault baby  
Now I know, seen enough  
I've seen enough to know that I know you  
Maybe.  
Now I'm alone, I'm here with me  
Got clarity and baby I can see through the bullshit  
I wanna be alone with me and all the broken down pieces  
Cause no-one can fix it 
Chorus 
e |-0---0---0--0--0--0---0--0---0--0--0--0---0--0-----0---0--0----|  
B |-0---0---0--0--0--0---0--0---0--0--0--0---0--0-----0---0--0----|  
F#|-10--10--10-10-10-10--10-10--10-10-10-10--10-10/12-12--12-12---| 
D |-9---9---9--9--9--9---9--9---9--9--9--9---9--9 /11-11--11-11---| 
A |-7---7---7--7--7--7---7--7---7--7--7--7---7--7 /9--9---9--9----| 
D |-7---7---7--7--7--7---7--7---7--7--7--7---7--7--9--9---9--9----| 
e |-0--0--0-0-0-0-0--0-0-0-0-0--0-0-0-0-0--0-0--------------------|  
B |-0--0--0-0-0-0-0--0-0-0-0-0--0-0-0-0-0--0-0--------------------|  
F#|-8--8--8-8-8-8-8--8-8-8-8-8--8-8-8-8-8--8-8--------------------| 
D |-7--7--7-7-7-7-7--7-7-7-7-7--7-7-7-7-7--7-7--------------------| 
A |-5--5--5-5-5-5-5--5-5-5-5-5--5-5-5-5-5--5-5--------------------| 
D |-5--5--5-5-5-5-5--5-5-5-5-5--5-5-5-5-5--5-5--------------------| 
e |-0--0--0--0---0--0--0--0---0--0--0--0--0--0---0--0-------------|  
B |-0--0--0--0---0--0--0--0---0--0--0--0--0--0---0--0-------------|  
F#|-10-10-10-10--10-10-10-10--10-10-10-10-10-10--10-10/12---------| 
D |-9--9--9--9---9--9--9--9---9--9--9--9--9--9---9--9 /11---------| 
A |-7--7--7--7---7--7--7--7---7--7--7--7--7--7---7--7 /9----------| 
D |-7--7--7--7---7--7--7--7---7--7--7--7--7--7---7--7--9----------| 
e |-0---0--0---0--0--0-0-0-0-0--0-0-0-0-0--0-0-0-0-0--0-0---------|  
B |-0---0--0---0--0--0-0-0-0-0--0-0-0-0-0--0-0-0-0-0--0-0---------|  
F#|-12--12-12--5--5--5-5-5-5-5--5-5-5-5-5--5-5-5-5-5--5-5---------| 
D |-11--11-11--4--4--4-4-4-4-4--4-4-4-4-4--4-4-4-4-4--4-4---------|  
A |-9---9--9---2--2--2-2-2-2-2--2-2-2-2-2--2-2-2-2-2--2-2---------| 
D |-9---9--9---2--2--2-2-2-2-2--2-2-2-2-2--2-2-2-2-2--2-2---------| 
(x2, incl. 2 bars above) 
e |-0--0--0--0---0--0--0--0---0--0--0---0--0--0---|  
B |-0--0--0--0---0--0--0--0---0--0--0---0--0--0---|  
F#|-10-10-10-10--10-10-10-10--10-10-10--10-10-10--| 
D |-9--9--9--9---9--9--9--9---9--9--9---9--9--9---| 
A |-7--7--7--7---7--7--7--7---7--7--7---7--7--7---| 
D |-7--7--7--7---7--7--7--7---7--7--7---7--7--7---| 
e |-0--0--0--0--0--0---0--0---0--0--0--0--0--0----|  
B |-0--0--0--0--0--0---0--0---0--0--0--0--0--0----|  
F#|-10-10-10-10-10-10--10-10--13-13-13-13-13-13---| 
D |-9--9--9--9--9--9---9--9---12-12-12-12-12-12---| 
A |-7--7--7--7--7--7---7--7---10-10-10-10-10-10---| 
D |-7--7--7--7--7--7---7--7---10-10-10-10-10-10---| 
e |-0--0--0--0--0--0---0--0--0--0--0--0-----------|  
B |-0--0--0--0--0--0---0--0--0--0--0--0-----------|  
F#|-13-13-13-13-13-13--13-13-13-13-13-13----------| 
D |-12-12-12-12-12-12--12-12-12-12-12-12----------| 
A |-10-10-10-10-10-10--10-10-10-10-10-10----------| 
D |-10-10-10-10-10-10--10-10-10-10-10-10----------| 
e |-0--0--0--0--0--0--0--0--0--0------------------|  
B |-0--0--0--0--0--0--0--0--0--0------------------|  
F#|-13-13-13-13-13-13-13-13-13-13-----------------| 
D |-12-12-12-12-12-12-12-12-12-12-----------------| 
A |-10-10-10-10-10-10-10-10-10-10-----------------| 
D |-10-10-10-10-10-10-10-10-10-10-----------------| 
Ending 
e |-----------------------------------------------------|  
B |-------------------0---------------------------------|  
F#|-0-0-0-0--3-3-3/8--8---------------------------------|(x2) 
D |-4-4-4-4--0h2-2/7--7----2-2-2-2--5-5-5-5-5-7-7-7-7---| 
A |----------0-0-0-------0-2-2-2-2--5-5-5-5-5-7-7-7-7---| 
E |----------------------0-2-2-2-2--5-5-5-5-5-7-7-7-7---|  
e |----------------------------------------------------------|  
B |---------------------0------------------------------------|  
F#|-0-0-0-0--3-3-3-3/8--8-------------0----------------0--0--| 
D |-4-4-4-4--0h2-2-2/7--7----2-2-2-2--0-5-5-5-7-7-7-5--4--4--| 
A |----------0-0-0-0-------0-2-2-2-2----5-5-5-7-7-7-5--2--2--| 
E |------------------------0-2-2-2-2----5-5-5-7-7-7-5--------|  
Song Structure 
Intro 
Verse 1 
Chorus 
Verse 2 
Chorus 
Bridge 
Verse 3 
Chorus  
Ending