Tabbed By: (Strider) Daniel King  
Email: [email protected]  
Dropped  Tuning 
 e 
~-vibrato 
b-bend 
p-pull off 
h-hammer on 
p.m.-palm mute 
r-release hand preventing a ring out 
d- dub-out 
/-Slide 
DISTORTION THROUGHOUT EXCEPT WHERE NOTED 
Intro (x2) 
(~ELECTRIC~ CLEAN) 
e|---------------------------------|  
B|-----3-----5---3---------8-------|  
G|-----0--0--0-0-0-----0---0-0-----| 
D|---0-0-0-0-0-0-0---0---0-----0---| 
A|-4---------------4---------------| 
D|---------------------------------| 
Ooh yeah ooh yeah,  
Ooh yeah yeah  
Ooh yeah ooh yeah  
Ooh yeah yeah 
Verse 1 (x8) 
(~ELECTRIC~ CLEAN) 
e|----------------------------------|  
B|-----3---------3---3-----8--------|  
G|-----0---------0---0-----0--0-----|(x4) 
D|---0-0--0----0-0---0---0------0---| 
A|-4-----4-0-0-----4---4------------| 
D|----------------------------------| 
e|----------------------------------|  
B|-----3---------3---3-----8--------|  
G|-----0---------0---0-----0--------|(x4) 
D|---0-0--0----0-0---0---0----------| 
A|-4-----4-0-0-----4---4------7\4---| 
D|----------------------------------| 
Walking always over windows  
Weeping willow, wind blows  
You are not alone  
Watching for the sign it's reading 
Overtime I'm thinking  
You are not alone 
Pre-Chorus 
e|---------------------------------------------------------------|  
B|---------------------------------------------------------------|  
G|---------------------------------------------------------------| 
D|-5--5-5-5-5-5-5-5-5-5-5-5--9-9-9-9-9-9-9-9-9-9-9-9--12-12-12---| 
A|-5--5-5-5-5-5-5-5-5-5-5-5--9-9-9-9-9-9-9-9-9-9-9-9--12-12-12---| 
D|-5--5-5-5-5-5-5-5-5-5-5-5--9-9-9-9-9-9-9-9-9-9-9-9--12-12-12---| 
e|---------------------------------------------------------------|  
B|---------------------------------------------------------------|  
G|---------------------------------------------------------------| 
D|-12-12-12-12-12-12-12-12-12-12--5-5-5-5-5-0-5-5-5-5-5-5-5-5----| 
A|-12-12-12-12-12-12-12-12-12-12--5-5-5-5-5-0-5-5-5-5-5-5-5-5----| 
D|-12-12-12-12-12-12-12-12-12-12--5-5-5-5-5-0-5-5-5-5-5-5-5-5----| 
Ooh Yeah  
In time, you will find  
You're heavensent  
Chorus 
e|------------------------------------------------|  
B|------------------------------------------------|  
G|------------------------------------------------| 
D|-12-12-12-12-12-12-12-12-12-12-12-12-12-12-12---| 
A|-12-12-12-12-12-12-12-12-12-12-12-12-12-12-12---| 
D|-12-12-12-12-12-12-12-12-12-12-12-12-12-12-12---| 
e|-----------------------------------|  
B|-----------------------------------|  
G|-----------------------------------| 
D|-9-9-9-9-9-9-9-9-9-9-9-9-9-9-9-9---| 
A|-9-9-9-9-9-9-9-9-9-9-9-9-9-9-9-9---| 
D|-9-9-9-9-9-9-9-9-9-9-9-9-9-9-9-9---| 
e|------------------------------------------------------------------|  
B|------------------------------------------------------------------|  
G|------------------------------------------------------------------| 
D|-5-5-5-5-5-5-5-5-5-5-5-5-5-5-5--0-2-2-2-0-2-0-2-2-2-0-2-0-2-0-----| 
A|-5-5-5-5-5-5-5-5-5-5-5-5-5-5-5--0-2-2-2-0-2-0-2-2-2-0-2-0-2-0-----| 
D|-5-5-5-5-5-5-5-5-5-5-5-5-5-5-5--0-2-2-2-0-2-0-2-2-2-0-2-0-2-0-----| 
Oh, with my ass on the line  
The sign is reading overtime  
I'm thinking you're heavensent  
You're sent 
Pre-Verse (Introduction sequence, x4) 
Ooh yeah ooh yeah  
Ooh yeah yeah 
Ooh yeah ooh yeah  
Ooh yeah yeah 
Verse 2 (As with Verse 1) 
Waiting in a patient limbo  
Wanting only to know  
This is my way home  
Wading through overflowing reason 
Can't contain the feeling  
This is my way home  
Pre-Chorus (As with Pre-Chorus sequence) 
In time you will find  
You're heavensent  
Chorus (As with Chorus sequence, repeat) 
Oh, with my ass on the line  
The sign is reading overtime  
I'm thinking you're heavensent 
Oh, oh, oh, with my ass on the line  
The sign is reading overtime  
And I'm thinking you're heavensent  
Sent, oh, oh, oh  
Post-Chorus (x2) 
e|--------------------------------------------------|  
B|--------------------------------------------------|  
G|--------------------------------------------------| 
D|-12-12-12-12-12-12-12-12-12-12-12-12-12-12-12-12--| 
A|-12-12-12-12-12-12-12-12-12-12-12-12-12-12-12-12--| 
D|-12-12-12-12-12-12-12-12-12-12-12-12-12-12-12-12--| 
e|--------------------------------------------------|  
B|--------------------------------------------------|  
G|--------------------------------------------------| 
D|-5-5-5-5-5-5-5-5-5-5-5-5-5-5-5-5------------------| 
A|-5-5-5-5-5-5-5-5-5-5-5-5-5-5-5-5------------------| 
D|-5-5-5-5-5-5-5-5-5-5-5-5-5-5-5-5------------------| 
You're heavensent  
You're heavensent  
You're heavensent to me  
You were sent to me  
Interlude (~CLEAN~) (x2) 
e|-0-0-0-0-0-0-0-0-0-0-0-0--0-0-0-0-0-0-0-0-0-0-0-0-|  
B|-0-0-0-0-0-0-0-0-0-0-0-0--0-0-0-0-0-0-0-0-0-0-0-0-|  
G|-4-4-4-4-4-4-4-4-4-4-4-4--7-7-7-7-7-7-7-7-7-7-7-7-| 
D|-4-4-4-4-4-4-4-4-4-4-4-4--7-7-7-7-7-7-7-7-7-7-7-7-| 
A|-2-2-2-2-2-2-2-2-2-2-2-0--5-5-5-5-5-5-5-5-5-5-5-0-| 
D|--------------------------------------------------| 
You're heavensent  
You're heavensent  
You're heavensent  
Bridge (x2) 
e|--------------------------------------------------|  
B|--------------------------------------------------|  
G|--------------------------------------------------| 
D|-12-12-12-12-12-12-12-12-12-12-12-12-12-12-12-12--| 
A|-12-12-12-12-12-12-12-12-12-12-12-12-12-12-12-12--| 
D|-12-12-12-12-12-12-12-12-12-12-12-12-12-12-12-12--| 
e|--------------------------------------------------|  
B|--------------------------------------------------|  
G|--------------------------------------------------| 
D|-5-5-5-5-5-5-5-5-5-5-5-5-5-5-5-5------------------| 
A|-5-5-5-5-5-5-5-5-5-5-5-5-5-5-5-5------------------| 
D|-5-5-5-5-5-5-5-5-5-5-5-5-5-5-5-5------------------| 
It was meant to be  
Meant to be  
You were sent to me  
You were sent to me  
It was meant to be  
Meant to be  
You were sent to me  
You were sent to me  
Ending (As with Chorus sequence, repeat) 
Oh, with my ass on the line  
The sign is reading overtime  
And I'm thinking you're heavensent  
Sent, oh, oh  
With my ass on the line  
The sign is reading overtime  
And I'm thinking you're heavensent 
Play this second time around 
e|------------------------------------------------|  
B|------------------------------------------------|  
G|------------------------------------------------| 
D|-12-12-12-12-12-12-12-12-12-12-12-12-12-12-12---| 
A|-12-12-12-12-12-12-12-12-12-12-12-12-12-12-12---| 
D|-12-12-12-12-12-12-12-12-12-12-12-12-12-12-12---| 
e|-----------------------------------|  
B|-----------------------------------|  
G|-----------------------------------| 
D|-9-9-9-9-9-9-9-9-9-9-9-9-9-9-9-9---| 
A|-9-9-9-9-9-9-9-9-9-9-9-9-9-9-9-9---| 
D|-9-9-9-9-9-9-9-9-9-9-9-9-9-9-9-9---| 
e|---------------------------------------------|  
B|---------------------------------------------|  
G|---------------------------------------------| 
D|-5-5-5-5-5-5-5-5-5-5-5-5-5-5-5--2-let ring---| 
A|-5-5-5-5-5-5-5-5-5-5-5-5-5-5-5--2------------| 
D|-5-5-5-5-5-5-5-5-5-5-5-5-5-5-5--2------------| 
Structure 
Intro 
Verse 1 
Pre-Chorus 
Chorus 
Pre-Verse 
Verse 2 
Pre-Chorus 
Chorus 
Post Chorus 
Interlude 
Bridge 
Ending