Tabbed By: (Strider) Daniel King  
Email: [email protected]  
Dropped  tuning  
 e 
~-vibrato 
b-bend 
p-pull off 
h-hammer on 
p.m.-palm mute 
r-release hand preventing a ring out 
d- dub-out 
/-Slide 
Intro  
(~CLEAN~) 
e|-----5-----5-----5-----5-----5--------5-----5-----5-----5-----5-----|  
B|-3-3---3-3---3-3---3-3---3-3---3----3-----3-----3-----3-----3---3---|  
G|----------------------------------4-----4-----4-----4-----4---------| 
D|--------------------------------------------------------------------| 
A|--------------------------------------------------------------------| 
D|--------------------------------------------------------------------| 
e|-----5-----5-----5-----5-----5--------------------------------------|  
B|---3-----3-----3-----3-----3---3--------3---------------------------|  
G|-0-----0-----0-----0-----0------------0-----0----7-----7--7-7-------| 
D|-------------------------------------------------7-----7--7-7-------| 
A|----------------------------------5/7------------5-----5--5-5-------| 
D|----------------------------------------------5------5--------------| 
Verse 1 (x2) 
(~CLEAN~) 
e|-----5-----5-----5-----5-----5--------5-----5-----5-----5-----5-----|  
B|-3-3---3-3---3-3---3-3---3-3---3----3-----3-----3-----3-----3---3---|  
G|----------------------------------4-----4-----4-----4-----4---------| 
D|--------------------------------------------------------------------| 
A|--------------------------------------------------------------------| 
D|--------------------------------------------------------------------| 
e|-----5-----5-----5-----5-----5--------------------------------------|  
B|---3-----3-----3-----3-----3---3--------3---------------------------|  
G|-0-----0-----0-----0-----0------------0-----0----7-----7--7-7-------| 
D|-------------------------------------------------7-----7--7-7-------| 
A|----------------------------------5/7------------5-----5--5-5-------| 
D|----------------------------------------------5------5--------------| 
Always were out of time  
The action makes you smile... 
When your hands are by your side  
Feed the tree that you love  
A light comes from above  
Then it fades before your eyes 
Pre-Chorus 
(~CLEAN~)  
e|-0-0-0-0-0-0--0--0--0-0-0-0-0-----|  
B|-0-0-0-0-0-0--0--0--0-0-0-0-0-----|(x3)  
G|-9-9-9-9-9-9--9--7--7-7-7-7-7-----| 
D|-9-9-9-9-9-9--9--7--7-7-7-7-7-----| 
A|-7-7-7-7-7-7--0--5--5-5-5-5-5-----| 
D|-----------------5--5-5-5-5-5-----| 
Do you see it...  
Do you feel it...  
Well I mean it... 
Chorus  
(~DISORTION~) 
e|----------------------------------|  
B|----------------------------------|  
G|----------------------------------| 
D|-9-9-9--9-9-9--9-9-9--9-9-12-12---| 
A|-9-9-9--9-9-9--9-9-9--9-9-12-12---| 
D|-9-9-9--9-9-9--9-9-9--9-9-12-12---| 
e|----------------------------------|  
B|----------------------------------|  
G|----------------------------------| 
D|-5-5-5--5-5-5--5-5-5--5-5-7-7-----| 
A|-5-5-5--5-5-5--5-5-5--5-5-7-7-----| 
D|-5-5-5--5-5-5--5-5-5--5-5-7-7-----| 
e|----------------------------------|  
B|----------------------------------|  
G|----------------------------------| 
D|-9-9-9--9-9-9--9-9-9--9-9-12-12---| 
A|-9-9-9--9-9-9--9-9-9--9-9-12-12---| 
D|-9-9-9--9-9-9--9-9-9--9-9-12-12---| 
e|----------------------------------|  
B|----------------------------------|  
G|----------------------------------| 
D|-5-5-5--5-5-5--5-5-5--5-5-5-5-----| 
A|-5-5-5--5-5-5--5-5-5--5-5-5-5-----| 
D|-5-5-5--5-5-5--5-5-5--5-5-5-5-----| 
When you're right outside of me (right outside of me)  
Didn't seem to care  
Well you had your hold of me (had you hold of me)  
You know it's not fair... 
Post-Chorus (As with Intro) 
It's not fair...  
It's not fair...  
It's not fair... 
Verse 2 (As with Verse 1) 
Make it last for the while  
Keep it with your eyes  
Yeah it's you they're thinking of...  
Last more than a while  
It turns into a style 
When you feed the tree you love... 
Pre-Chorus (As with Pre-Chorus) 
Can you feel it...  
Do you see it...  
Well I mean it... 
Chorus (As with Chorus, x2) 
When you're right outside of me (right outside of me)  
Didn't seem to care  
Well you had your hold of me (had you hold of me)  
You know it's not fair... 
When you're right outside of me (right outside of me)  
Didn't seem to care  
Well you had your hold of me (had you hold of me)  
You know it's not fair... 
Interlude 
e|--------------------------------------|  
B|--------------------------------------|  
G|--------------------------------------| 
D|-2-2-2-2--2-2--2--2-2-2-2-2-----------| 
A|-2-2-2-2--2-2--2--2-2-2-2-2-----------| 
D|-2-2-2-2--2-2--2--2-2-2-2-2-----------| 
e|-2-2-2-2--2-2--2--2-2-2-2-2-----------|  
B|-3-3-3-3--3-3--3--3-3-3-3-3-----------|  
G|-2-2-2-2--2-2--2--2-2-2-2-2-----------| 
D|-0-0-0-0--0-0--0--0-0-0-0-0-----------| 
A|-0-0-0-0--0-0--0--0-0-0-0-0-----------| 
D|-0-0-0-0--0-0--0--0-0-0-0-0-----------|  
e|-3-3-3-3--3--3-3-3--3-3-3-3-----------|  
B|-3-3-3-3--3--3-3-3--3-3-3-3-----------|  
G|-0-0-0-0--0--0-0-0--0-0-0-0-----------| 
D|-2-2-2-2--2--0-0-0--0-0-0-0-----------| 
A|-3-3-3-3--3--2-2-2--2-2-2-2-----------| 
D|--------------------3-3-3-3-----------| 
e|-2-2-2-2--2-2--2--2-2-2-2-2-----------|  
B|-3-3-3-3--3-3--3--3-3-3-3-3-----------|  
G|-2-2-2-2--2-2--2--2-2-2-2-2-----------|(x3, incl. 4 bars above) 
D|-0-0-0-0--0-0--0--0-0-0-0-0-----------| 
A|-0-0-0-0--0-0--0--0-0-0-0-0-----------| 
D|-0-0-0-0--0-0--0--0-0-0-0-0-----------|  
You wake up  
You take up 
You pace round 
You're spaced out  
You're taking off with what you see  
Wooah... 
You wake up  
You take up 
Your pace round 
You're spaced out  
You're taking up with what you see 
one more time- what you've seen,  
one more time- what you've seen,  
one more time- what you've seen,  
Say it's not fair. 
Pre-Outro (As with Previous Chorus) 
When you're right outside of me (right outside of me)  
Didn't seem to care  
Well you had your hold of me (had you hold of me)  
You know it's not fair... 
When you're right outside of me (right outside of me)  
Didn't seem to care  
Well you had your hold of me (had you hold of me)  
You know it's not fair... 
Outro 
(~CLEAN~) 
e|-----5-----5-----5-----5-----5--------5-----5-----5-----5-----5-----|  
B|-3-3---3-3---3-3---3-3---3-3---3----3-----3-----3-----3-----3---3---|  
G|----------------------------------4-----4-----4-----4-----4---------| 
D|--------------------------------------------------------------------| 
A|--------------------------------------------------------------------| 
D|--------------------------------------------------------------------| 
e|-----5-----5-----5-----5-----5--------------------|  
B|---3-----3-----3-----3-----3---3--------3---------|  
G|-0-----0-----0-----0-----0------------0-----0-----| 
D|--------------------------------------------------| 
A|----------------------------------5/7-------------| 
D|----------------------------------------------5---| 
It's not fair...  
Oooh it's not fair...  
No it's not fair... yeah... 
Song Structure 
Intro 
Verse 1 
Pre-Chorus 
Chorus 
Post-Chorus 
Verse 2 
Pre-Chorus 
Chorus 
Interlude 
Pre-Outro 
Outro