Transcribed by: Tony Crouch 
Email: [email protected] 
I Transcribed this song from the "Live at the chapel" concert 
They did a while back, they also did it unplugged which was 
quite cool! 
-0-0-0-0-0-0|-0-0-0-0-0-0|-0-0-0-0-0-0|--------------------------------------- 
-0-0-0-0-0-0|-0-0-0-0-0-0|-0-0-0-0-0-0|--------------------------------------- 
-1-1-1-1-1-1|-3-3-3-3-3-3|-6-6-6-6-6-6|--------------------------------------- 
-2-2-2-2-2-2|-4-4-4-4-4-4|-7-7-7-7-7-7|--------------------------------------- 
-2-2-2-2-2-2|-4-4-4-4-4-4|-7-7-7-7-7-7|--------------------------------------- 
-0-0-0-0-0-0|-0-0-0-0-0-0|-0-0-0-0-0-0|--------------------------------------- 
This is the Intro and Verse Progression, this is repeated many times! 
-0-0-0-0-0-0|-0-0-0-0-0-0|---------------------------------------------------- 
-0-0-0-0-0-0|-0-0-0-0-0-0|---------------------------------------------------- 
-6-6-6-6-6-6|-8-8-8-8-8-8|---------------------------------------------------- 
-7-7-7-7-7-7|-9-9-9-9-9-9|---------------------------------------------------- 
-7-7-7-7-7-7|-9-9-9-9-9-9|---------------------------------------------------- 
-5-5-5-5-5-5|-7-7-7-7-7-7|---------------------------------------------------- 
This is the Chorus Progression, 
Again repeated many 
times! 
Then do the verse again, 
Then do the chorus again, 
-0-0-0-0-0-0|-0-0---0-0-0|---------------------------------------------------- 
-1-1-1-1-1-1|-0-0-3-0-0-0|---------------------------------------------------- 
-2-2-2-2-2-2|-2-2-4-1-1-1|---------------------------------------------------- 
-2-2-2-2-2-2|-2-2---2-2-2|---------------------------------------------------- 
-0-0-0-0-0-0|-0-0---2-2-2|---------------------------------------------------- 
------------|-------0-0-0|---------------------------------------------------- 
Then play this little bridge bit with Ella improvising while it's 
played. 
I'm not totally sure about the 3 bit, but everything else seems pretty a 
ok. 
       4 
Then you do another verse and it's finitoed. 
That should cover everything. 
See ya