Tabbed By: (Strider) Daniel King  
Email: [email protected]  
Standard tuning  
 e 
~-vibrato 
b-bend 
p-pull off 
h-hammer on 
p.m.-palm mute 
r-release hand preventing a ring out 
d- dub-out 
/-Slide 
ACOUSTIC 
Intro (x2) 
e|-2-2-x-2-2-2-2-3--3-3-3-3-3-3-3-3-3-3--|  
B|-3-3-3-3-3-3-3-3--3-3-3-3-3-3-3-3-3-3--|  
G|-2-2-2-2-2-2-2-2--0-0-0-0-0-0-0-0-0-0--| 
D|-0-0-0-0-0-0-0-0--2-2-2-2-2-2-2-2-2-2--| 
A|---------------------------------------| 
E|---------------------------------------| 
e|---3-3-3--3-3-3-3--2-2-2-2-0-0-0-0-0---|  
B|---3-3-3--3-3-3-3--3-3-3-3-3-3-3-3-3---|  
G|-0-0-0-0--0-0-0-0--2-2-2-2-2-2-2-2-2---| 
D|-0-0-0-0--0-0-0-0--0-0-0-0-0-0-0-0-0---| 
A|-x-x-x-x--x-x-x-x----------------------| 
E|-3-3-3-3--3-3-3-3----------------------| 
Verse 1 
e|-2-2-x-2-2-2-2-3--3-3-3-3-3-3-3-3-3-3--|  
B|-3-3-3-3-3-3-3-3--3-3-3-3-3-3-3-3-3-3--|  
G|-2-2-2-2-2-2-2-2--0-0-0-0-0-0-0-0-0-0--| 
D|-0-0-0-0-0-0-0-0--2-2-2-2-2-2-2-2-2-2--| 
A|---------------------------------------| 
E|---------------------------------------| 
e|---3-3-3--3-3-3-3--2-2-2-2-0-0-0-0-0---|  
B|---3-3-3--3-3-3-3--3-3-3-3-3-3-3-3-3---|  
G|-0-0-0-0--0-0-0-0--2-2-2-2-2-2-2-2-2---|(x2, first two bars) 
D|-0-0-0-0--0-0-0-0--0-0-0-0-0-0-0-0-0---| 
A|-x-x-x-x--x-x-x-x----------------------| 
E|-3-3-3-3--3-3-3-3----------------------| 
e|-2-2-2-2-2-2-2-2-2--3-3-3-3-3-3-3-3-3--|  
B|-3-3-3-3-3-3-3-3-3--3-3-3-3-3-3-3-3-3--|  
G|-2-2-2-2-2-2-2-2-2--0-0-0-0-0-0-0-0-0--| 
D|-0-0-0-0-0-0-0-0-0--2-2-2-2-2-2-2-2-2--| 
A|---------------------------------------| 
E|---------------------------------------| 
e|-3-3-3-3-3-3-3-3--2-2-2-0-0-0-0--------|  
B|-3-3-3-3-3-3-3-3--3-3-3-3-3-3-3--------|  
G|-0-0-0-0-0-0-0-0--2-2-2-2-2-2-2--------|  
D|-0-0-0-0-0-0-0-0--0-0-0-0-0-0-0--------| 
A|-x-x-x-x-x-x-x-x-----------------------| 
E|-3-3-3-3-3-3-3-3-----------------------| 
e|-2-2-2-0-0-0-0-x-x-3-3-3-3-3-3-3-------|  
B|-3-3-3-3-3-3-3-x-x-3-3-3-3-3-3-3-------|  
G|-2-2-2-2-2-2-2-x-x-0-0-0-0-0-0-0-------| 
D|-0-0-0-0-0-0-0-x-x-2-2-2-2-2-2-2-------| 
A|---------------------------------------| 
E|---------------------------------------| 
e|-3-3-3-3-3-3-3--2-2-2-0-0-0-0----------|  
B|-3-3-3-3-3-3-3--3-3-3-3-3-3-3----------|  
G|-0-0-0-0-0-0-0--2-2-2-2-2-2-2----------| 
D|-0-0-0-0-0-0-0--0-0-0-0-0-0-0----------| 
A|-x-x-x-x-x-x-x-------------------------| 
E|-3-3-3-3-3-3-3-------------------------| 
When it comes to push and shove, it's teen angst unrequited love;  
and it makes me sick yeah! 
I've been complaining to my friends, they think I'll never hear the end of you boy  
Oh, but what's it gotta do, when she starts thinking of you, and you don't feel it  
And when I'm lying in my bed; these crappy clich?fill my head; it makes me sick again 
Pre-Chorus 
e|-2--2-2-3-3---3-3-3-3-3---3-3-3-3--3---3-3-3-3-3-3-3--x--|  
B|-3--3-3-3-3---3-3-3-3-3---3-3-3-3--3---3-3-3-3-3-3-3--x--|  
G|-2--2-2-2-0---0-0-0-0-0---0-0-0-0--0---0-0-0-0-0-0-0--x--| 
D|-0--0-0-0-2---0-0-0-0-0---0-0-0-0--0---0-0-0-0-0-0-0--x--| 
A|---------------------------------------0h3-3-3-3-0-3--x--| 
E|------------------------------------------------------x--| 
If I wanted to make you feel ok; I'd say I felt the same way; can't  
because I don't know if it's gonna go away 
Chorus (x2) 
e|-0-0-0-0-0-0-0--3-3-3-3-3-3-3--2-2-2--0-0-0-0-x-x-2-2-2--0-0-0-0--|  
B|-0-0-0-0-0-0-0--3-3-3-3-3-3-3--3-3-3--3-3-3-3-x-x-3-3-3--3-3-3-3--|  
G|-0-0-0-0-0-0-0--0-0-0-0-0-0-0--2-2-2--2-2-2-2-x-x-2-2-2--2-2-2-2--| 
D|-2-2-2-2-2-2-2--0-0-0-0-0-0-0--0-0-0--0-0-0-0-x-x-0-0-0--0-0-0-0--| 
A|-2-2-2-2-2-2-2--x-x-x-x-x-x-x-------------------------------------| 
E|-0-0-0-0-0-0-0--3-3-3-3-3-3-3-------------------------------------| 
You make me want you so bad  
You make me want what I've never been able to have 
Verse 2 (As with Verse 1, strumming pattern varies) 
I feel like turning back; You know I've been slacking off in school  
I've been so lazy today; haven't even had the strength to say  
hello to you  
Well my guitar sounds so dead; it's only ringing in my head;  
and on my pillow  
But the confusing comforts me; and whether you can see; never full moon  
Pre-Chorus (As with Pre-Chorus) 
If I wanted to make you feel ok; I'd say I felt the same way; can't because I don't know if  
it's gonna go away 
Chorus (As with Chorus Sequence, x6) 
You make me want you so bad  
You make me want what I've never been able to have  
You make me want this so bad  
You make me want what I've never been able to have  
You make me want you  
You make me want what I've never been able to have 
Ending 
e|-0-0-0-2--2-2-3-3---3-3-3-3-3-------3--|  
B|-3-3-3-3--3-3-3-3---3-3-3-3-3-------3--|  
G|-2-2-2-2--2-2-2-0---0-0-0-0-0-------0--| 
D|-0-0-0-0--0-0-0-0---0-0-0-0-0--x-0--0--| 
A|------------------------x-x-x--x-x--x--| 
E|------------------------3-3-3--x-3--3--| 
If I wanted to make it feel ok; I'd say I felt the same way;  
can't because I dont know if its gonna go away 
Song Structure 
Intro 
Verse 1 
Pre-Chorus 
Chorus 
Verse 2 
Pre-Chorus 
Chorus 
Ending