Tabbed By: (Strider) Daniel King  
Email: [email protected]  
Dropped  tuning  
 e 
~-vibrato 
b-bend 
p-pull off 
h-hammer on 
p.m.-palm mute 
r-release hand preventing a ring out 
d- dub-out 
/-Slide 
DISTORTION THROUGOUT EXCEPT WHERE NOTED 
Intro 
e|---------------------------------|  
B|---------------------------------|  
G|---------------------------------|(x4) 
D|-----------2-2-2-2-2-4-4-4-------|On last time, don't mute 
A|-2h4-4-2-0-2-2-2-2-2-4-4-4-x-x---| 
D|---------0-2-2-2-2-2-4-4-4-x-x---| 
Verse 1 
e|-----------------|---------------------------------|  
B|-----------------|---------------------------------|  
G|-----------------|---------------------------------|(x4) 
D|-2-2-2-4-4-4-----|-----------2-2-2-2-2-4-4-4-------|On last time, 
A|-2-2-2-4-4-4-x-x-|-2h4-4-2-0-2-2-2-2-2-4-4-4-x-x---|don't mute 
D|-2-2-2-4-4-4-x-x-|---------0-2-2-2-2-2-4-4-4-x-x---| 
This has been so surreal 
It's like a dream 
Everything it's so shit, is what you mean 
Chorus (x2) 
e|------------------------------------|  
B|------------------------------------|  
G|------------------------------------| 
D|-9-9-9-9-9-9-9-9--9-9-9-9-9-9-9-9---| 
A|-9-9-9-9-9-9-9-9--7-7-7-7-7-7-7-7---| 
D|-9-9-9-9-9-9-9-9--9-9-9-9-9-9-9-9---| 
e|----------------------------------------------------|  
B|----------------------------------------------------|  
G|----------------------------------------------------| 
D|-11-11-11-11-11-11-11-11--11-11-11-11-11-11-11-11---| 
A|-11-11-11-11-11-11-11-11--11-11-11-11-11-11-11-11---| 
D|-11-11-11-11-11-11-11-11--11-11-11-11-11-11-11-11---| 
e|------------------------------------|  
B|------------------------------------|  
G|------------------------------------|(x2) 
D|-7-7-7-7-7-7-7-7--7-7-7-7-7-7-7-7---| 
A|-7-7-7-7-7-7-7-7--7-7-7-7-7-7-7-7---| 
D|-7-7-7-7-7-7-7-7--7-7-7-7-7-7-7-7---| 
I, cause I, I want to fly, to fly, to fly yeah 
I want, I want to fly, to fly, to fly, to fly 
Pre-Verse 
e|---------------------------------|  
B|---------------------------------|  
G|---------------------------------|(x2) 
D|-----------2-2-2-2-2-4-4-4-------|On last time, don't mute 
A|-2h4-4-2-0-2-2-2-2-2-4-4-4-x-x---| 
D|---------0-2-2-2-2-2-4-4-4-x-x---| 
Verse 2 (As with Verse 1) 
Deeper I go I find what to say 
When I stop you were there 
You're watching me 
Chorus (As with Chorus) 
I, cause I, I want to fly, to fly, to fly 
I want to fly, to fly, to fly, to fly 
Post Chorus (As with Chorus) 
And I feel it, now I feel it, now I feel it 
I feel I feel I feel 
Now I feel it, now I feel it... 
(~CLEAN~) Bridge  
e|-----0--0-0-----------0--0-0--------|  
B|-----0--0-0-----------0--0-0--------|  
G|-7-7-7--7-7-------2-2-2--2-2--------| 
D|-7-7-7--7-7-(X4)--2-2-2--2-2-(x4)---| 
A|-5-5-5------------0-0-0-------------| 
D|------------------------------------| 
(~DISTORTION~) 
e|----------------------------------------------|  
B|----------------------------------------------|  
G|----------------------------------------------| 
D|-7-7--7-7--7-7--7-7--7-7--7-7--7-7--7-7-7-7---| 
A|-5-5--5-5--5-5--5-5--5-5--5-5--5-5--5-5-5-5---| 
D|-5-5--5-5--5-5--5-5--5-5--5-5--5-5--5-5-5-5---| 
  p.m......................................../ 
e|----------------------------------------------|  
B|----------------------------------------------|  
G|----------------------------------------------| 
D|-9-9--9-9--9-9--9-9--9-9--9-9--9-9--9-9-9-9---| 
A|-7-7--7-7--7-7--7-7--7-7--7-7--7-7--7-7-7-7---| 
D|-7-7--7-7--7-7--7-7--7-7--7-7--7-7--7-7-7-7---| 
  p.m......................................../ 
e|----------------------------------------------|  
B|----------------------------------------------|  
G|----------------------------------------------| 
D|-7-7--7-7--7-7--7-7--7-7--7-7--7-7--7-7-7-7---| 
A|-5-5--5-5--5-5--5-5--5-5--5-5--5-5--5-5-5-5---| 
D|-5-5--5-5--5-5--5-5--5-5--5-5--5-5--5-5-5-5---| 
  p.m......................................../ 
e|----------------------------------------------|  
B|----------------------------------------------|  
G|----------------------------------------------| 
D|-9-9--9-9--9-9--9-9--9-9--9-9--9-9--9-9-9-9---| 
A|-7-7--7-7--7-7--7-7--7-7--7-7--7-7--7-7-7-7---| 
D|-7-7--7-7--7-7--7-7--7-7--7-7--7-7--7-7-7-7---| 
Oh I feel, I need, I breathe, I see 
The pressure building up on me 
And I need to leave 
I'm waiting for the time 
Chorus (As with Chorus) 
When I, I want to fly, to fly, to fly 
I... I want to fly, to fly, to fly 
Pre-Outro (As with Post Chorus) 
And I feel it, and I feel it, yeah I feel it 
I feel I feel I feel 
Oh I feel it, yeah I feel, and I want to fly 
Outro 
e|---------------------------------|  
B|---------------------------------|  
G|---------------------------------|(x3) 
D|-----------2-2-2-2-2-4-4-4-------| 
A|-2h4-4-2-0-2-2-2-2-2-4-4-4-x-x---| 
D|---------0-2-2-2-2-2-4-4-4-x-x---| 
e|---------------------------------|  
B|---------------------------------|  
G|---------------------------------| 
D|-----------2-let ring------------| 
A|-2h4-4-2-0-2---------------------| 
D|---------0-2---------------------| 
to fly...to fly...ooh to fly... 
Song Structure 
Intro 
Verse 1 
Chorus 
Pre-Verse 
Verse 2 
Chorus 
Post Chorus 
Bridge 
Chorus  
Pre-Outro 
Outro