Tabbed By: (Strider) Daniel King  
Email: [email protected]  
Dropped  tuning  
 e 
~-vibrato 
b-bend 
p-pull off 
h-hammer on 
^-Palm mute 
r-release hand preventing a ring out 
d- dub-out 
/-Slide 
DISTORTION THROUGHOUT 
Intro (x2) 
e--------------------------------| 
B--------------------------------| 
G--------------------------------| 
D--------------------------------| 
A-3-3-3-3h5-3-5-5-5--3-3-3-3-3-5-| 
D-0-0-0-0h0-0-0-0-0--0-0-0-0-0-0-| 
Verse 1 
e--------------------------------| 
B--------------------------------| 
G--------------------------------|(x3) 
D--------------------------------| 
A-3-3-3-3h5-3-5-5-5--3-3-3-3-3-5-| 
D-0-0-0-0h0-0-0-0-0--0-0-0-0-0-0-| 
e-------------------------------------| 
B-------------------------------------| 
G-play this on fourth time around-----| 
D-------------------------------------| 
A-3-3-3-3h5-3-5-5-5--3-3-3-3-5-5-5-5--| 
D-0-0-0-0h0-0-0-0-0--0-0-0-0-0-0-0-0--| 
I can see you and you don't have a clue 
Of what you've done? 
Chorus (x2) 
e-----------------------------------------------------------------|  
B-----------------------------------------------------------------|  
G-----------------------------------------------------------------| 
D-7-7-7-7-7-7-7-7--10-10-10-10-10-10-10-10--8-8-8-8-8-8-8-8-------| 
A-5-5-5-5-5-5-5-5--8--8--8--8--8--8--8--8---8-8-8-8-8-8-8-8-------| 
D-0-0-0-0-0-0-0-0--0--0--0--0--0--0--0--0---8-8-8-8-8-8-8-8-------| 
e------------------|  
B------------------|  
G------------------| 
D-5-5-5-5-5-5-5-5--| 
A-5-5-5-5-5-5-5-5--| 
D-5-5-5-5-5-5-5-5--| 
Of what you've done? 
Pre-Verse 
e---------------------------------| 
B---------------------------------| 
G---------------------------------| 
D---------------------------------| 
A-3-3-3-3h5-3-5-5-5--3-3-3-3-3-5--| 
D-0-0-0-0h0-0-0-0-0--0-0-0-0-0-0--| 
Verse 2 (As with Verse 1 sequence) 
An' there's no reason for what you've done to,  
Done to my? 
Chorus (As with chorus, repeat) 
Post-Chorus (x2) 
e---------------------------------|  
B---------------------------------|  
G---------------------------------| 
D-5-7-10-12-12--5-7--10-10-10-10--| 
A-3-5-8--10-10--3-5--8--8--8--8---| 
D---------------------------------| 
Interlude 
e-------------------------------------|  
B-------------------------------------|  
G-------------------------------------|(x7) 
D-8-8-8-8-10-8-8--8--5-5-5-5-7-5-5-5--| 
A-8-8-8-8-8--8-10-8--5-5-5-5-5-5-7-5--| 
D-8-8-8-8------------5-5-5-5----------| 
  ^ ^ ^ ^ ^  ^ ^  ^  ^ ^ ^ ^ ^ ^ ^ ^ 
e-------------------------------------|  
B--Play this on eighth time around ---|  
G-------------------------------------| 
D-8-8-8-8-10-8-8--8--5-let ring-------| 
A-8-8-8-8-8--8-10-8--5----------------| 
D-8-8-8-8------------5----------------| 
  ^ ^ ^ ^ ^  ^ ^  ^ 
In your mind it's all... Fuck you, you suck 
You Don't Know (x7)...Fuck you, you suck 
Pre-Verse (As with Pre-verse) 
Verse 3 (As with Verse 1 sequence) 
There's no way that we can see that of what you've tried... 
Chorus (As with chorus, repeat) 
Outro (As with Intro, repeat) 
Song Structure 
Intro 
Verse 1 
Chorus  
Pre-verse 
Verse 2 
Chorus  
Post-Chorus 
Interlude 
Pre-Verse 
Verse 3  
Chorus 
Outro