This tab is a guide for adalitas guitar only.  
This tab isnt perfect but its nearly right, as I was taking notes when they were playing it live.  
Intro :  
---------------------------------------------------------- 
---------------------------------------------------------- 
---------------------------------------------------------- 
-----5---5------8--8----5-----------5--5-- 8--8-----1----- 
-----5---5------8--8----5-----------5--5-- 8--8-----1----- 
-----5---5------8--8----5-----------5--5-- 8--8-----1----- 
Verse Riff : (Raul plays the heavier louder chord over the top)  
---------------------------------------------------------- 
---------------------------------------------------------- 
---------------------------------------------------------- 
-----5--5---8--8---5--5--8--8---5---8--5-5 8 8 1---------- 
-----5--5---8--8---5--5--8--8---5---8--5-5 8 8 1 --------- 
-----5--5---8--8---5--5--8--8---5---8--5-5 8 8 1---------- 
and suddely......(listen to the Cd for strumming patterns.) 
-------------------------------------------- 
-------------------------------------------- 
-------------------------------------------- 
------3------------------- 1---------------- 
------3--------------------1---------------- 
------3------------------- 1---------------- 
Chorus :  
------------------------------------------------------- 
------------------------------------------------------- 
------------------------------------------------------- 
------8888----3--33333--------8888-------1--11111------ 
------8888----3--33333--------8888-------1--11111------ 
------8888----3--33333--------8888-------1--11111------ 
there are just some strumming variations of the verse riff in both the verses, you should be smart enough to work em out.  
im sick of some chicks 
---------------------------------------- 
---------------------------------------- 
------3------------------ -1------------ 
------3--------------------1------------ 
------3------------------- 1------------