Australia 
FAIRY PARK    Magic Dirt 
 Transcribed by Davo [email protected] 
E-|---------------------------------------------------------------------------| 
B-|---------------------------------------------------------------------------| 
G-|---------7--7--------------------------------------------------------------| 
D-|-7--7----7--7---8-8----8>7-7-----------------------------------------------| 
A-|-7--7----5--5---8-8----8>7-7-----------------------------------------------| 
E-|-5--5-----------6-6----6>5-5-----------------------------------------------| 
    Intro riff 
E-|---------------------------------------------------------------------------| 
B-|---------------------------------------------------------------------------| 
G-|---------------------------------------------------------------------------| 
D-|-7-7---8-8----5x5x5x5------------------------------------------------------| 
A-|-7-7---8-8----5x5x5x5------------------------------------------------------| 
E-|-5-5---6-6----3x3x3x3------------------------------------------------------| 
    Main riff for verse 
E-|---------------------------------------------------------------------------| 
B-|---------------------------------------------------------------------------| 
G-|---------------------------------------------------------------------------| 
D-|-7-7--8-8->>-10-10-10-10->>--13-13-----------------------------------------| 
A-|-7-7--8-8->>-10-10-10-10->>--13-13-----------------------------------------| 
E-|-5-5--6-6->>-8--8--8--8-->>--11-11-----------------------------------------| 
    Riff after verse  (chorus) 
E-|---------------------|-----------------------------------------------------| 
B-|---------------------|-----------------------------------------------------| 
G-|----7----------------|-----------------------------------------------------| 
D-|-7----8-8-77->--5----|--7--8----5-5-5-5------------------------------------| 
A-|---------------------|-----------------------------------------------------| 
E-|---------------------|-----------------------------------------------------| 
    Solo Riff