intro 
e|------------------------------------------------------------------| 
B|------------------------------------------------------------------| 
G|------------------------------------------------------------------| 
D|-11--11--11----------------------11--11--11-----------------------| 
A|-11--11--11----------------------11--11--11-----------------------| 
E|--9---9---9---9---9---9---9---9---9---9---9---9---9---9---9---9---| 
	        !   !   !   !   !	        !   !   !   !   ! 
e|------------------------------------------------------------------| 
B|------------------------------------------------------------------| 
G|------------------------------------------------------------------| 
D|-11--11--x-11--11--x-11--11--x--11-11-11-11-11-11-----------------| 
A|-11--11--x-11--11--x-11--11--x--11-11-11-11-11-11-----------------| 
E|--9---9--x--9---9--x--9---9--x---9--9--9--9--9--9-----------------| 
  i am going from 1 to the other... 
e|------------------------------------------------------------------| 
B|------------------------------------------------------------------| 
G|------------------------------------------------------------------| 
D|----------------9---------9-9-----------------9----7----7-7-------| 
A|-6-7-7-7-6-7-7-----------------6-7-7-7-6-7-7----------------------| 
E|------------------------------------------------------------------| 
       the one with the high neck... 
e|------------------------------------------------------------------| 
B|------------------------------------------------------------------| 
G|------------------------------------------------------------------| 
D|------------------------------------------------------------------| 
A|-7----5----4-5-4-7---5---4-------7----5----4-5-4-7---5---4--------| 
E|---------------------------7-5-----------------------------7-5----| 
interlude? 
e|------------------------------------------------------------------| 
B|-------------------------7--7--7--7-------------------------------| 
G|-------------------6--9--------------9--9--9----------------------| 
D|-------------6--9-------------------------------------------------| 
A|-------7--9-------------------------------------------------------| 
E|-7--9-------------------------------------------------------------| 
			   * 
hold bend and release on fourth consecutive note... ummm, yeh... 
   secret  in  an  angel  of the dust... 
e|------------------------------------------------------------------| 
B|------------------------------------------------------------------| 
G|------------------------------------------------------------------| 
D|-11--11--11--11--11--11--11--11--11-------------------------------| 
A|-11--11--11--11--11--11--11--11--11--11--11--11--11--9------------| 
E|--9---9---9---9---9---9---9---9---9---------------------12--12----| 
Note,	!  are natural harmonics 
	*  are bends 
===========================================================================