This song is tabbed in parts (intro, verse, Chorus etc.) for the rhythm guitar 
and parts for the lead guitar. The timing should be easy enough for you to work  
out yourself by just listening to the song a few times. 
key: 
h = hammer on  (eg: --4h5-- is 4 hammer on to 5) 
x = muted stroke 
2x = mute the note immediately after you've played it (not a muted stroke) 
~ = bend  
Intro: (Lead Guitar) 
e|----------------------------------|-----------------------| 
B|----------------12----------------|----------------12-----| 
G|----------12-14----14~-14-12------|----------12-14----14~-| 
D|-14-12-14-------------------14-12-|-14-12-14--------------| 
A|----------------------------------|-----------------------| 
E|----------------------------------|-----------------------| 
e|----------------------------------|-----------------------| 
B|----------------12----------------|----------------12-15--| 
G|----------12-14----14~-14-12------|----------12-14--------| 
D|-14-12-14-------------------14-12-|-14-12-14--------------| 
A|----------------------------------|-----------------------| 
E|----------------------------------|-----------------------| 
Intro: (Rhythm guitar) 
e|---------------------------------| 
B|---------------------------------| 
G|--1-1-1-1-------7-7-7-7-7-7-7-7--| 
D|--2-2-2-2-5-5-5-7-7-7-7-7-7-7-7--| 
A|--2-2-2-2-5-5-5-5-5-5-5-5-5-5-5--| 
E|----------3-3-3------------------| 
*repeat 4 times but on the last one play a single  power chord 
rather than 8 
Verse: (you cab use open chords, which have been specified here, but power  
        chords sound more true to the rhythm of the song). 
e|--------------------------------| 
B|--------------------------------| 
G|-x-x-4-x-x-4-4-0h7-7-7----------| 
D|-x-x-4-x-x-4-4-0h7-7-7-0h7-7-7--| 
A|-x-x-2-x-x-2-2-0h5-5-5-0h7-7-7--| 
E|-----------------------0h5-5-5--| 
*repeat 4 times 
Chorus: