Transcribed by Ben Donnelly ([email protected]) 
Note: 11/12\11 means bending the string whilst plucking the string only 
once 
START? 
|---------------------------------| 
|---------------------------------| 
|--9-9--11/12\11--9----9----9-----| (Guitar 1) 
|--9-9--------------11---10---10--|(main riff*) X8 
|---------------------------------| 
|---------------------------------| 
   X1    X1    X1      X1 
|-----|-----|-------|-----| 
|-----|-----|-------|-----| 
|-----|-9---|-8/9-9-|-----| 	 (Guitar 2) 
|-----|-9---|-8/9-9-|-----| (for first 4 beats) 
|-----|-----|-------|-----|  (over main riff)	 
|-----|-----|-------|-----| 
|-----------------------------------------| 
|-----------------------------------------| 
|-----?9---11/12\11--9----9-------9----9--| (Guitar 2) 
|--9-9---9-------------11---11-10---10----|(next 4 beats) 
|-----------------------------------------|(over main riff**) 
|-----------------------------------------| 
--------------------------------------------------------------- 
VERSE: 
  This is my lucky star?          Doesn't seem? To me 
  No matter what I hear? 		   And I'm totally undone 
|-------------------------|-5-5-5---------|--------44444--| 
|-------------------------|-5-5-5---------|--------44444--| 
|-9-----------------------|-6-6-6---------|--------55555--| 
|-9-----------------------|-7-7-7---------|--------66666--| 
|-7-----------------------|-7-7-7---------|--------66666--| 
|-------------------------|-5-5-5---------|--------44444--| 
No matter where I are        Lucky pen lucky hand 
Thinking about the air	   Thinking just for today 
|---------------------------| 
|---------------------------| 
|---------------------------| 
|---------------------4---2-| 
|---------------------------| 
|---------------------------| 
  	gonna travel far    To see      That the 
And I'm thinking?up a storm     And the  
|-5---------------------|----4-4-4-4-4-4-4-4-| 
|-5---------------------|----4-4-4-4-4-4-4-4-| 
|-6---------------------|----5-5-5-5-5-5-5-5-| 
|-7---------------------|----6-6-6-6-6-6-6-6-| 
|-7---------------------|----6-6-6-6-6-6-6-6-| 
|-5---------------------|----4-4-4-4-4-4-4-4-| 
						(palm mute) 
PRELUDE: 
 road         	    is in my heart 
|-------------2-----------------------------| 
|----------2-----5--2--------------5-5-5-5--| 
|----3--4--------------4--3-3------6-6-6-6--| 
|-4-------------------------4--7---7-7-7-7--| 
|-4-------------------------4--7---7-7-7-7--| 
|-2----------------------------5------------| 
CHORUS 
|-------------------------|-----------------------| 
|-------------------------|-----------------------| 
|-9----------9------------|-9---------------------|(guitar 1) 
|-9--9--11---9--9--10--11-|-9--9--11---7--6--4--2-|(play twice) 
|-7--9--11---7--9--10--11-|-7--9--11---7--6--4--2-| 
|----7--9-------7--8---9--|----7--9----5?-4?-2-?0-| 
|-------------------------|-----------------------| 
|-------------------------|-----------------------| 
|---------9--8--6---------|-----------------------|(Guitar 2) 
|------------------9--6---|-----------------------|(play twice) 
|-------------------------|-7--6--4--2------------| 
|-------------------------|-------------4---------| 
----after end of second verse/chorus, go down------- 
***first guitar repeats start riff x8 
(guitar 2) 
	      	  This is my Lucky star? 
   X1		X1	  Does't seem that far to me 
|-----|---------|			    		|---------- 
|-----|---------|                 		        |---------- 
|-----|--/9-----| then (guitar 2) 		        |-9-9-9-9-- 
|-2---|--/9-----| start riff** X5		        |-9-9-9-9-- 
|-2---|--/7-----|					|-7-7-7-7-etc. 
|-0---|---------|					|---------- 
*then repeat PRELUDE 
*then CHORUS 
There's my tab of Lucky Star?It's a bit over the place but if you've got 
good road map reading skills it should be easy to follow. E-mail me with 
your comments, additions, critisims  
************************** 
*Ben Donnelly           * 
*                                * 
*[email protected] 
*                                * 
*Sydney, Australia     * 
**************************