Tabbed By Andrew Schultz  ([email protected]) 
Tuning: Standard 
Intro: 
Lead Guitar 
e  --------------------------------------------- 
b  -------7-------5-5-------7-------5-5--------- 
g  ---------6-----6-6---------6-----6-6--------- 
d  --------------------------------------------- 
a  --------------------------------------------- 
E  --------------------------------------------- 
Rhythm Guitar 
e  --------------------------------------------- 
b  --------------------------------------------- 
g  --------------------------------------------- 
d  --4-4-4-4-4-4-4-4-4---4-4-4-4-4-4-4-4--------- 
a  --------------------------------------------- 
E  --------------------------------------------- 
Then Another Rhythm Guitar Layered Over The Intro 
e  --------------------------------------------- 
b  --------------------------------------------- 
g  --11--9-------------------------------------- 
d  --11--9--7--9-------------------------------- 
a  ---9--7--7--9-------------------------------- 
E  ---------5--7-------------------------------- 
Verse (Chords) 
"Make The Most Of Opportunity.." 
e  --------------------------------------------- 
b  --------------------------------------------- 
g  --11--9-------------------------------------- 
d  --11--9--7--9-------------------------------- 
a  ---9--7--7--9-------------------------------- 
E  ---------5--7-------------------------------- 
"I Want To Know If Everything.." 
e  --------------------------------------------- 
b  --------------------------------------------- 
g  --6--4--2--4--------------------------------- 
d  --6--4--2--4--------------------------------- 
a  --4--2--0--2--------------------------------- 
E  --------------------------------------------- 
There are a few more bits but this is ample especially the intro that rocks!!