Tab by: Michael (sheepo) 
Email: [email protected] 
Standard Tuning: EADGBE 
Verse 
Guitar 1 
e|------------------------------------------| 
B|----------7-------------------------------| 
G|------------7\2-2-2--2-2-2-2-2------------| 
D|--0-0--0----------------------------------| x6 
A|------------------------------------------| 
E|------------------------------------------| 
e|------------------------------------------| 
B|----------7-------------------------------| 
G|------------7\2-2-2-2--0-0----------------| 
D|--0-0--0--------------------4--2----------| 
A|------------------------------------------| 
E|------------------------------------------| 
e|------------------------------------------| 
B|----------7-------------------------------| 
G|------------7\2-2-2--2-2-2-2-2------------| 
D|--0-0--0----------------------------------| x3 
A|------------------------------------------| 
E|------------------------------------------| 
e|----------------|--10-10-10----------10---| 
B|----------7-----|---7--7--7----------10---| 
G|------------7---|---7--7--7--x2-------7---| 
D|--0-0--0--------|-------------------------| 
A|----------------|-------------------------| 
E|----------------|-------------------------| 
Guitar 2 
e|------------------------------------------| 
B|------------------------------------------| 
G|--7-7-7-7--7-7-7-7--9-9-9-9--9-9-9-9------| 
D|--7-7-7-7--7-7-7-7--9-9-9-9--9-9-9-9------| 
A|--5-5-5-5--5-5-5-5--7-7-7-7--7-7-7-7------| 
E|------------------------------------------| 
Chorus 
e|------------------------------------------| 
B|------------------------------------------| 
G|--7-7-7-7--7-7-7-7-----------5-5-5-5------| 
D|--7-7-7-7--7-7-7-7--5-5-5-5--5-5-5-5------| x3 
A|--5-5-5-5--5-5-5-5--5-5-5-5--3-3-3-3------| 
E|--------------------3-3-3-3---------------| 
e|------------------------------------------| 
B|------------------------------------------| 
G|--------------------3-3-3-3--7-7-7-7------| 
D|--5-5-5-5--5-5-5-5--3-3-3-3--7-7-7-7------| x2 
A|--5-5-5-5--5-5-5-5--1-1-1-1--5-5-5-5------| 
E|--3-3-3-3--3-3-3-3------------------------| 
Interlude 
Guitar 1 
e|------------------------------------------| 
B|----------------------------3-------------| 
G|-------3-----3---3-----3------2-----2-----| 
D|--0-0----0-0---0---0-0---0-------0--------| 
A|------------------------------------------| 
E|------------------------------------------| 
Guitar 2 
e|------------------------------------------| 
B|----------7---------------3---------------| 
G|------------7\2--2-2-2-2-----2------------| 
D|--0-0--0----------------------------------| 
A|------------------------------------------| 
E|------------------------------------------|