(tabbed by Luke Harris of benzene - [email protected]) 
intro and chorus: 
================= 
e-||------0-----------|-----0-----------|-----------------|-----------------|| 
B-||----------3-----3-|---------3-----0-|-----3---1-0-----|-----------------|| 
G-||*-0-0---0-----0---|-----------------|----------------0/(5)--4---2---4--*|| 
D-||*-----------------|-4-4---4-----4---|-2-2---2-----2--0|---0---0---0----*|| 
A-||------------------|-----------------|-----------------|-----------------|| 
E-||------------------|-----------------|-----------------|-----------------|| 
      1   2   3   4     1   2   3   4     1   2   3   4     1   2   3   4 
verse: 
====== 
chords for the verse (i think anyway) 
e-|--3--|--3--|--3--|--2-(3-2-3)--||- 
B-|--3--|--3--|--3--|--3-(3-3-3)--||- 
G-|--0--|--2--|--0--|--2-(2-2-2)-*||- 
D-|--0--|--0--|--2--|--0-(0-0-0)-*||- 
A-|--2--|-----|--2--|-------------||- 
E-|--3--|-----|--0--|-------------||- 
(listen to the recording to see what i mean on the 4th bar) 
bridge: 
======= 
{hope you're familiar with his form of notation ... 1 chord or stroke per beat} 
 / / / 
(*) / / / / / / / 
(* - play  like in bar 3 of the verse) 
"solo": 
======= 
(meant for two guitars (i think) but i picked out what i could for just one) 
e-|-----0-----------|-----------------|-----------------|-----------------|- 
B-|---------3-5---7-|---7-5\3-3\1-1/3-|-----3-----3-----|-----------------|- 
G-|-0-0---0---------|-----------------|---4-----4-------|-----------------|- 
D-|-----------------|-----------------|-4-----4-------4-|-2p0-0h2-2p0-0---|- 
A-|-----------------|-----------------|-----------------|-----------------|- 
E-|-----------------|-----------------|-----------------|-----------------|- 
    1   2   3   4     1   2   3   4     1   2   3   4     1   2   3   4 
e-|-----0-----------|-----------------|-----------------|-------------------|- 
B-|---------3-5---7-|---7-5\3-3\1-1/3-|-----3-----3-----|-------------------|- 
G-|-0-0---0---------|-----------------|---4-----4-----4-|-------------------|- 
D-|-----------------|-----------------|-4-----4---------|-5-5-7-7-9-9-11-11-|- 
A-|-----------------|-----------------|-----------------|-------------------|- 
E-|-----------------|-----------------|-----------------|-------------------|- 
    1   2   3   4     1   2   3   4     1   2   3   4     1   2   3   4 
                                               _____________________ 
                                               |1. 
                                               | 
e-||--------12----14p12-------|------14-----15-|-----14-12--------|- 
B-||-----12----12-------12----|--12------------|-----------12-----|- 
G-||*-12-------------------12-|----------12----|------------------|- 
D-||*-------------------------|----------------|------------------|- 
A-||--------------------------|----------------|------------------|- 
E-||--------------------------|----------------|------------------|- 
      1  &  2  &  3  &  4  &   1 & 2 & 3 & 4 &   1 & 2  &  3   4 
  _____________________ ______________________________________________________ 
                        |2. 
                        | 
e-|--------------------||-15----15----15-========-|-----------------|-------|| 
B-|---15--12-----------||-----------------|-------|-----------------|-------|| 
G-|----------11----11-*||-----------------|-------|-12----12----12-========-|| 
D-|-------------14----*||-----------------|-------|-----------------|-------|| 
A-|--------------------||-----------------|-------|-----------------|-------|| 
E-|--------------------||-----------------|-------|-----------------