This is the way that i play it after watching them play live and listening  
to the cd 
let me know what you think  
Tabbed by Tim Steinhardt ([email protected]) 
I think that this is the way that they play it after watching them play live 
/ - slide up 
\ - slide down 
Intro 
E------------------------------------------------ 
B---5-3-2-2-2-3-2--------5-3-2-2-3--3-2--3/5---- 
G-----------------4-2---------------------------- 
D------------------------------------------------ 
A------------------------------------------------ 
E------------------------------------------------ 
bit before verses 
E---------------------------------------- 
B--3-2------3-2------3-2---3------------- 
G------4-2------4-2------4---4\2-2-------   x 3 
D---------------------------------------- 
A---------------------------------------- 
E---------------------------------------- 
on the fourth time play this little variation to above  
(bit just before verse) 
E---------------------------------------- 
B--3-2------3-2----3-2-3/9-10------------ 
G------4-2------4------------------------  
D---------------------------------------- 
A---------------------------------------- 
E---------------------------------------- 
The verse  (easy to get timing, just listen to song) 
E---------------------------------------- 
B---------------------------------------- 
G--------------------7-7-7-7--9-9-9-9---- 
D--7-7-7-7--9-9-9-9--7-7-7-7--9-9-9-9---- 
A--7-7-7-7--9-9-9-9--5-5-5-5--7-7-7-7---- 
E--5-5-5-5--7-7-7-7---------------------- 
E---------------------------------------- 
B---------------------------------------- 
G--------------------7--7--7--7----7----- 
D--7-7-7-7--9-9-9-9--7--7--7--7-----7--- 
A--7-7-7-7--9-9-9-9--5--5--5--5------5- 
E--5-5-5-5--7-7-7-7---------------------- 
Solo bit (tabbed by Daniel {[email protected]} on other puck tab) 
E-------------7--10-9-----10-9----------  
B--9-10--9-10---------10-------10------- 
G--------------------------------------- 
D--------------------------------------- 
A--------------------------------------- 
E--------------------------------------- 
It's fairly simple to work out from this 
Any comments/corrections to: 
	[email protected]