Tab By: Sheep Guitarist 
Email:  [email protected] 
================================================== 
Intro 
e|---5-5----------------------------------------| 
B|---7-7----------------------------------------| 
G|---7-7---6-6-6-6-6-6--7-6---------------------| 
D|---7-7---0-0-0-0-0-0--0-0---------------------|  x3 
A|----------------------------------------------| 
E|----------------------------------------------| 
e|---5-5----------------------------------------| 
B|---7-7----------------------------------------| 
G|---7-7---6-6-6-6-6-7--8-9-10-12---------------| 
D|---7-7---0-0-0-0-0-0--0-0--0--0---------------| 
A|----------------------------------------------| 
E|----------------------------------------------| 
e|----------------------------------------------| 
B|----------------------------------------------| 
G|-----4/7--6-6-6--4-4-4-----4/7--6-6-6--4-4-4--| 
D|--7---------------------7---------------------| 
A|----------------------------------------------| 
E|----------------------------------------------| 
e|----------------------------------------------| 
B|------------------------------------5---------| 
G|------4---6----4/7-7--6-4-4-0-----7---7-------| 
D|--7-7---7---7-------------------7-------------| 
A|----------------------------------------------| 
E|----------------------------------------------| 
Verse 
e|---------|---------------------------------------------| 
B|---------|-----------------------------5-5-5--10-10-10-| 
G|-----4h7-|-----4---7---4/7-7-6-4p0---7-----------------| 
D|-5h7-----|-7-7---7---7-------------7-------------------| 
A|---------|---------------------------------------------| 
E|---------|---------------------------------------------| 
Chorus 
e|-------------------------------------------------------| 
B|-10-10--7h8h10--8-7-7------7h8h10--7-------------------| 
G|----------------------9-7------------7-7\6\4-------4---| 
D|-----------------------------------------------7-7---7-| 
A|-------------------------------------------------------| 
E|-------------------------------------------------------| 
e|-------------------------------------------------------| 
B|-------------------------------------------------------| 
G|-------------------------------------------------------| 
D|--7-7-7-7-7--5-5-5--9-9-9---7-7-7-7-7--9-9-9--5-5-5----| 
A|--7-7-7-7-7--5-5-5--9-9-9---7-7-7-7-7--9-9-9--5-5-5----| 
E|--5-5-5-5-5--3-3-3--7-7-7---5-5-5-5-5--7-7-7--3-3-3----| 
Solo 
--------- 
Some bends and extra slides between the notes happen in there, 
but its too hard to work it all out. this ia a basic guide to 
the solo and I think it is correct. 
e|-------------------------------10-----7----------------------| 
b|---5/7-------7/8\-8--7-8--10------10-----10--8-7--8b-7-------| 
g|--------9-7---------------------------------------------9-7--| 
d|-------------------------------------------------------------| 
a|-------------------------------------------------------------| 
e|-------------------------------------------------------------| 
e|-------------------------------------------------------------| 
b|--------------------------7--7/8\7--------7-/8\--------------| 
g|---7-----4----4/7------7------------9--8---------9--7--------| 
d|-----7-7---7-------7-----------------------------------7-----| 
a|-------------------------------------------------------------| 
e|-------------------------------------------------------------| 
Bridge after Solo - repeat the intro with some variations I think 
Outro 
e|----------------------------------------------| 
B|----------------------------------------------| 
G|----------------------------------------------| 
D|--7-6--4--2/4--6-7-6----repeated till end-----| 
A|----------------------------------------------| 
E|----------------------------------------------| 
Thats all! 
=============================================