by Jebediah 
tabbed by Daniel Sanders ([email protected]) 
Verse... 
(Smile when ya want and tell me you're happy...) 
E----------------------------------------- 
B----------------------------------------- 
G------------7-7-------------------------- 
D--7-7--x-x--7-7--5-5--x-x--7-7----------- 
A--7-7--x-x--5-5--5-5--x-x--7-7----------- 
E--5-5--x-x-------3-3--x-x--5-5-----------...repeat x4 
Chorus... 
(I'm not happy...I'm not happy...) 
E----------------------------------------- 
B----------------------------------------- 
G----------------------------------------- 
D--3-3--5--3--5--3------------------------ 
A--3-3--5--3--5--3------------------------ 
E--5-5--3--5--3--1------------------------...repeat x4 
(You know, you know...tell me what's it all about...) 
E----------------------------------------- 
B----------------------------------------- 
G-------7-7------------------------------- 
D--7-7--7-7--5-5--7-7--------------------- 
A--7-7--5-5--5-5--7-7--------------------- 
E--5-5-------3-3--5-5--------------------- 
Bridge... 
Just a whole lot of pick scrapes... 
dunno if it's accurate but it sounds okay....make changes if you need.. 
******************************************************** 
LYRICS 
Smile when you want and tell me you're happy 
Laugh when you want and tell me you're true 
Smile when you want and tell me you're happy 
Laugh when you want and tell me you're true 
I'm not happy I'm not happy I'm not happy I'm not happy 
Smile when you want and tell me you're happy 
Laugh when you want and share your gloom 
Smile when you want and make it all crappy 
Laugh when you want and tell me I'm through 
I'm not happy I'm not happy I'm not happy I'm not happy 
You know you know 
Tell me what it's all about tell me what it's all about 
You know you know 
Tell me what it's all about tell me what it's all about 
You know you know 
Tell me what it's all about tell me what it's all about 
You know you know 
What's it all about? 
Smile when you want and tell me you're happy 
Laugh when you want and tell me you're true 
Smile when you want and make it all sappy 
Laugh when you want and tell me we're through 
I'm not happy I'm not happy I'm not happy I'm not happy