Tabbed by Grant Joyce 
[email protected] 
Intro (Lead) 
|---------------------|-----------------------------| 
|---------------------|-----------------------------| 
|---------------------|-----------------------------| 
|-0-2--0--2-0-2--2/7--|-0-2--0--2-0-2--2/7\2--0--2--| 
|-0-2--0--2-0-2--2/7--|-0-2--0--2-0-2--2/7\2--0--2--| 
|---------------------|-----------------------------| 
    Repeat that twice, then when Kevin's guitar comes in, 
    just play this again but swap the bars around. 
Intro (Rythm) 
  Guitar just plays a  through the intro. 
Verse (Rythm) 
  |-B--|-B--|-G#5--|-G#5--|-B--|-B--|-F#5--|-F#5--|-E5--|-E5--| x 2 
Chorus (Rythm) 
  |-B--|-G#5--|-F#5--|-E5--| x 4 
After 1st Chorus (Lead) 
|-7------------------| 
|---7----------------| 
|-----6h8p6-6h8p6----| 
|-----------------9--| 
|--------------------| 
|--------------------| 
After "...the sho-ow" (Lead & Rythm) 
  Chords for this part only : 
   - x466xx 
  |-C#5--E5--B5--|-C#5--E5--B5--|-C#5--E5--B5--|-A5--| x 2 
Solo (Rythm) 
  Just play   through the solo. 
Solo (Lead)  (Simplified somewhat !!) 
|------------|----------------|------------|----------------| 
|------------|----------------|------------|-------------7--| 
|------------|----------------|------------|---------6-9----| 
|-6-6-6h7-6--|-7-9-7-6-7-6----|-6-6-6h7-6--|-7-9-7-9--------| 
|------------|-------------9--|------------|----------------| 
|------------|----------------|------------|----------------| 
Jebediah - Spoil The Show 
/ = slide 
h = hammer on 
p = pull off 
Lead Break (03:07 - 03:21): 
e------------------------------------------ 
B------------------------------------------ 
G------------------------------------------ 
D-----6--6h7--6--7p6--7/9--7--6--6h7p6----- 
A--4------------------------------------9-- 
E------------------------------------------ 
e--------------------------------------------------- 
B--------------------------------------------------- 
G----------------------------------------9--9h11p9-- 
D-----6--6h7--6--7p6--7/9--7--9p7--9/11------------- 
A--4------------------------------------------------ 
E--------------------------------------------------- 
e----------------------------------12-------------------------- 
B---------9h10p9------9--9h10--12--12--12--9h10p9h10p9--------- 
G--11/13----------11------------------------------------11--9-- 
D-------------------------------------------------------------- 
A-------------------------------------------------------------- 
E-------------------------------------------------------------- 
e-------------------------12--12--12--12--12--12-- 
B--7h9--10--10/12--10--9--12--12--12--12--12--12-- 
G------------------------------------------------- 
D------------------------------------------------- 
A------------------------------------------------- 
E-------------------------------------------------