Song:   Star Machine 
Artist: Jebediah 
Album:  Of Someday Shambles 
Tab By: [email protected] 
------------------ 
Intro 
------ 
Kevin 
e|---------------------------------------------| 
B|---------------------------------------------| 
G|---2---------2---------2---------------------| 
D|---2--4------2--4------2--4------------------| 
A|---0--4------0--4------0--4------------------| 
E|------2---------2---------2------------------| 
Chris 
e|---------------------------------------------| 
B|---------------------------------------------| 
G|-------------------9-------------------------| 
D|---6-6-7-6---6-6-7----6-7-6---6-6-7----------| 
A|------------------------------------7--------| 
E|---------------------------------------------| 
e|---------------------------------------------| 
B|---------------------------------------------| 
G|----------------9----------------------------| 
D|---6-7-6--6-6-7----6-7-6--6-6-7--------------| 
A|--------------------------------7------------| 
E|---------------------------------------------| 
e|--------------------------------7------------| 
B|------------------------7--------------------| 
G|----------------9-----------9----------------| 
D|---6-7-6--6-6-7-----6------------------------| 
A|---------------------------------------------| 
E|---------------------------------------------| 
Verse 
------- 
Kevin 
e|---------------------------------------------| 
B|---------------------------------------------| 
G|---------------------------------------------| 
D|---2-2-2-2--4-4-4-4--7-7-7-7--4-4-4-4--------| 
A|---2-2-2-2--4-4-4-4--7-7-7-7--4-4-4-4--------| 
E|---0-0-0-0--2-2-2-2--5-5-5-5--2-2-2-2--------| 
e|---------------------------------------------| 
B|---------------------------------------------| 
G|---6-6-6-6-----------------------------------| 
D|---6-6-6-6--2-2-2-2--7-7-7-7--7-7-7-7--------| 
A|---4-4-4-4--2-2-2-2--7-7-7-7--7-7-7-7--------| 
E|------------0-0-0-0--5-5-5-5--5-5-5-5--------| 
Chris 
e|--7--7--7---5--7--12--7--9-7-------4---------| 
B|--9--9--9---7--9--12--9--9-7--5h7------------| 
G|---------------------------------------------| 
D|---------------------------------------------| 
A|---------------------------------------------| 
E|---------------------------------------------| 
Pre Chorus 
------- 
e|---------------------------------------------| 
B|---------------------------------------------| 
G|--------------------6-6-6-6--7-7-7-7---------| 
D|--2-2-2-2-2-2-2-2---6-6-6-6--7-7-7-7---------| 
A|--2-2-2-2-2-2-2-2---4-4-4-4--5-5-5-5---------| 
E|--0-0-0-0-0-0-0-0----------------------------| 
e|---------------------------------------------| 
B|---------------------------------------------| 
G|---------------------------------------------| 
D|--7-7-7-7-7-7-7-7---7-7-7-7-7-7-7-7----------| 
A|--7-7-7-7-7-7-7-7---7-7-7-7-7-7-7-7----------| 
E|--5-5-5-5-5-5-5-5---5-5-5-5-5-5-5-5----------| 
Chorus 
------- 
e|---------------------------------------------| 
B|---------------------------------------------| 
G|--6-6-6-6--6-6-6-6--6-6-6-6--4-4-4-4---------| 
D|--6-6-6-6--6-6-6-6--6-6-6-6--4-4-4-4---------| 
A|--4-4-4-4--4-4-4-4--4-4-4-4--2-2-2-2---------| 
E|---------------------------------------------| 
e|---------------------------------------------| 
B|---------------------------------------------| 
G|--2-2-2-2--2-2-2-2---------------------------| 
D|--2-2-2-2--2-2-2-2---x-4-4-4---7-7-7-7-------| 
A|--0-0-0-0--0-0-0-0---x-4-4-4---7-7-7-7-------| 
E|---------------------x-2-2-2---5-5-5-5-------| 
Interlude 
------- 
e|---------------------------------------------| 
B|---------------------------------------------| 
G|---------------------------------------------| 
D|--2--------------4--------------7------------| 
A|--2--let ring----4--let ring----7--let ring--| 
E|--0--------------2--------------5------------| 
e|---------------------------------------------| 
B|---------------------------------------------| 
G|---------------------------------------------| 
D|--2--------------4--------------7----7--7----| 
A|--2--------------4--------------7----7--7----| 
E|--0--------------2--------------5----5--5----| 
e|---------------------------------------------| 
B|---------------------------------------------| 
G|---------------------------------------------| 
D|--4-4--7-7-7-7---4-4--7-7-7-7---4-4--7-7-7-7-| 
A|--4-4--7-7-7-7---4-4--7-7-7-7---4-4--7-7-7-7-| 
E|--2-2--5-5-5-5---2-2--5-5-5-5---2-2--5-5-5-5-| 
Last Chorus - Lead 
------- 
e|--3-/-5-/-9--7--9\5---3--/--5--/--9---7--9\5-| 
B|---------------------------------------------| 
G|---------------------------------------------| 
D|---------------------------------------------| 
A|---------------------------------------------| 
E|---------------------------------------------| 
Outro 
------- 
e|---------------------------------------------| 
B|---------------------------------------------| 
G|------9-------11--------14--------11---------| 
D|----9--9----11--11----14--14----11--11-------| 
A|--7-------9---------12--------9--------------| 
E|---------------------------------------------| 
e|---------------------------------------------| 
B|---------------------------------------------| 
G|------6-------9--------14--------14----------| 
D|----6---6---9---9----14--14----14--14--------| 
A|--4--------7-------12--------12--------------| 
E|---------------------------------------------| 
e|---------------------------------------------| 
B|---------------------------------------------| 
G|------9-------11--------14--------11---------| 
D|----9--9----11--11----14--14----11--11-------| 
A|--7-------9---------12--------9--------------| 
E|---------------------------------------------| 
e|---------------------------------------------| 
B|---------------------------------------------| 
G|------6--------14----------------------------| 
D|----6---6----14--14--------------------------| 
A|--4--------12-----------7--------------------| 
E|---------------------------------------------| 
Bit that fades in... 
e|---------------------------------------------| 
B|----7--5-------7--5-------7--5-------7--5----| 
G|--6------4---6------4---6------4---6------4--| 
D|---------------------------------------------| 
A|---------------------------------------------| 
E|---------------------------------------------| 
====================================