Tabbed by Andrew Garratt, 
 Perth, W.A 
 normal tuning 
This song is off Jebediah's EP" Twitch". Go and listen to it and maybe buy it. 
They are a wicked band and will become very big. This song is pretty easy to   
play though it does need to be played pretty quickly. 
                                INTRO 
                  LEAD 
e|--------------------|---------------|------------------|---------------| 
B|-------------10-10--|-12b-12b-12b-10|10----------------|---------------| 
G|-9-9-9-9h11---------|---------------|------------------|---------------| 
D|--------------------|---------------|------------------|---------------| 
A|--------------------|-------------- |------------------|---------------| 
e|--------------------|---------------|------------------|---------------| 
                  RYTHYM  (the strumming is incorrect so listen to the CD) 
e|--------------------|---------------|------------------|---------------| 
B|--------------------|---------------|------------------|---------------| 
G|--------------------|-7-7-7-7-7-7---|------------------|---------------| 
D|--9-9-9-9-9-9-------|-7-7-7-7-7-7---|--7-7-7-7-7-7-----|---------------| 
A|--9-9-9-9-9-9-------|-5-5-5-5-5-5-- |--7-7-7-7-7-7-----|---------------| 
E|--7-7-7-7-7-7-------|---------------|--5-5-5-5-5-5-----|---------------| 
                              VERSE 
e|--------------------|---------------|------------------|---------------| 
B|----------10----12b-|-10-12b-12b----|------------------|---------------| 
G|-9-9-9h11-----------|---------------|------------------|---------------| 
D|--------------------|---------------|------------------|---------------| 
A|--------------------|-------------- |------------------|---------------| 
E|--------------------|---------------|------------------|---------------| 
                             BRIDGE 
e|--------------------|---------------|------------------|---------------| 
B|------10-10-(10)----|---------------|------------------|---------------| 
G|-9h11---------------|---------------|------------------|---------------| 
D|--------------------|---------------|------------------|---------------| 
A|--------------------|-------------- |------------------|---------------| 
E|--------------------|---------------|------------------|---------------| 
                          ENDING PHRASE 
e|--------------------|---------------|------------------|---------------| 
B|-10-10--------------|---------------|------------------|---------------| 
G|------11-9----------|---------------|------------------|---------------| 
D|-----------11-9-7---|---------------|------------------|---------------| 
A|--------------------|-------------- |------------------|---------------| 
E|--------------------|---------------|------------------|---------------| 
       BIT AFTER THE "AAAAAAAHHHHHH" 
e|--------------------|---------------|------------------|---------------| 
B|-----------------12-|12--14b14b14b--|12-12-------------|---------------| 
G|-11-11-11-11h13-----|---------------|------------------|---------------| 
D|--------------------|---------------|------------------|---------------| 
A|--------------------|-------------- |------------------|---------------| 
E|--------------------|---------------|------------------|---------------| 
    PART OF THE OUTRO SOLO (just work the rest out or improvise on the  
                            major pentatonic scale in E key) 
e|--------------------|---------------|------------------|---------------| 
B|--------------------|-12------------|--------12-12h14p12h14p12-14b-12--| 
G|-------------12h14--|---------------|--12h14-----------|---------------| 
D|-------12h14--------|-----------12h14------------------|---------------| 
A|-12h14--------------|-----12h14---- |------------------|---------------| 
E|--------------------|---------------|------------------|---------------| 
-------------------------------------------------------------------------- 
  LYRICS 
Allman's late  
He's late again 
He probably won't show 
It's just not fair 
Allman's late  
He's late again 
He probably won't show 
It's just not fair 
There's no time there's no time there's no time there's no time  
------------------------------------------------------------------------