Supposed to Say - Jebediah 
Tabbed By Dan Szetho 
Chris  
Comes in on the 5th bar after intro			rpt x2 
|-------------------------------------------|------------------------------------| 
|-------------------------------------------|------------------------------------| 
|-9-9-9-9--4-4-4-4--5-5-5-5--7-7-7-7--9--9--|-9-9-9-9--4-4-4-4--5-5-5-5--7-7-7-7-| 
|-9-9-9-9--4-4-4-4--5-5-5-5--7-7-7-7--9--9--|-9-9-9-9--4-4-4-4--5-5-5-5--7-7-7-7-| 
|-7-7-7-7--2-2-2-2--3-3-3-3--5-5-5-5--7--7--|-7-7-7-7--2-2-2-2--3-3-3-3--5-5-5-5-| 
|-------------------------------------------|------------------------------------| 
							"I?ll be a man for you.." 
			rpt x4		on 4th time 
|------------------------------------|------------------------|------------------| 
|------------------------------------|------------------------|------------------| 
|-9-9-9-9--7-7-7-7--6-6-6-6--5-5-5-5-|-5-5--5-5--5-5--5-5-7-7-|-9-9-9-9--4-4-etc-| 
|-9-9-9-9--7-7-7-7--6-6-6-6--5-5-5-5-|-5-5--5-5--5-5--5-5-7-7-|-9-9-9-9--4-4-----| 
|-7-7-7-7--5-5-5-5--4-4-4-4--3-3-3-3-|-3-3--3-3--3-3--3-3-5-5-|-7-7-7-7--2-2-----| 
|------------------------------------|------------------------|------------------| 
"a-a-ay, a-a-ay so what am I supposed to say.."			back to verse 
E|-------------------------------------------15^13-------------------------------| 
B|-15-15-15--12-------13----12--15-15-15--12-------16-15-13----13-15-15-13----13-| 
G|--------------12-12----12---------------------------------15-------------15----| 
lead break 
		repeat x2 
E|--------------------| 
B|-14-16-16-14-13-----| 
G|----------------15--| 
Repeat verse again and thats it 
Kevin  
				repeat x2		same as intro riff rpt x2 
|-0-0-0-0--7-7-7-7---8--8--8--8--10-10-10-10-|-12--12-|-0-0-0-0--7-7-7-7---8-----| 
|-0-0-0-0--7-7-7-7---8--8--8--8--10-10-10-10-|-12--12-|-0-0-0-0--7-7-7-7---8-----| 
|-1-1-1-1--8-8-8-8---9--9--9--9--11-11-11-11-|-13--13-|-1-1-1-1--8-8-8-8---9-----| 
|-2-2-2-2--9-9-9-9--10-10-10-10--12-12-12-12-|-14--14-|-2-2-2-2--9-9-9-9--10-etc-| 
|-2-2-2-2--9-9-9-9--10-10-10-10--12-12-12-12-|-14--14-|-2-2-2-2--9-9-9-9--10-----| 
|-0-0-0-0--7-7-7-7---8--8--8--8--10-10-10-10-|-12--12-|-0-0-0-0--7-7-7-7---8-----| 
							"I?ll be a man for you.." 
		repeat x4	then:				back to verse 
|-12-12--10-10---9--9---8--8--|--8--8---8--8---8--8---8--8--10-10-|-0-0-0-0------| 
|-12-12--10-10---9--9---8--8--|--8--8---8--8---8--8---8--8--10-10-|-0-0-0-0------| 
|-13-13--11-11--10-10---9--9--|--9--9---9--9---9--9---9--9--11-11-|-1-1-1-1------| 
|-14-14--12-12--11-11--10-10--|-10-10--10-10--10-10--10-10--12-12-|-2-2-2-2-etc--| 
|-14-14--12-12--11-11--10-10--|-10-10--10-10--10-10--10-10--12-12-|-2-2-2-2------| 
|-12-12--10-10---9--9---8--8--|--8--8---8--8---8--8---8--8--10-10-|-0-0-0-0------| 
"a-a-ay, a-a-ay so what am I supposed to say.." 
Backing for the lead break is just same as verse/intro riff then repeat chorus riff to the end.