Tabbed By Dan Szetho 
Chris  
Starts 2 bars in 
|------------------------------|------------------------------|------------------| 
|-7^9-----7^9-----7^9--------7-|-7^9-----7^9-----7-7-7-8-7-7~-|------------------| 
|-----8-8-----8-8-----8-8--8---|-----8-8-----8-8--------------|-10-10-11-10-8-6--| 
|------------------------------|------------------------------|------------------| 
|------------------------------|------------------------------|------------------| 
|------------------------------|------------------------------|------------------| 
repeat x2 and all thru verse		last time			"oooohh.. you.." 
|------------------------------|----------|--------------------------------------| 
|------------------------------|-7^9------|--------------------------------------| 
|-8b---------------------------|-----8-8--|-10-10-11-10-8-6-8b-------------------| 
|-----9-11^9-11b--9-9-11^9-11b-|------etc-|---------------------9-11^9-11b--9-9--| 
|------------------------------|----------|------------------------------etc-----| 
|------------------------------|----------|--------------------------------------| 
					verse again		2nd time 
For the chorus, its mostly some pedal effect or something that produces the  
rapid notes, but chris plays something underneath:stuff around with    ,   
and  (String/Fret) really fast and at the end: 
|-------|-10-9-7---------------------------| 
|-9-8-7-|--------9-8-7--7^9----------------| 
|-------|-------------------8--------------| 
|-------|---------------------4-6-4~-6^4---| 
|-------|--------------------------------6-| 
|-------|----------------------------------| 
Repeat the verse lead a coupla times and the chorus lead again, and for the  
final coda he plays these two chords at the end 
E|-4-4-4-4-7-7-| 
B|-4-4-4-4-7-7-| 
G|-1-1-1-1-4-4-| 
Kevin  
Kevin has a very boring riff. 
|---------------------------------|---------------------------------| 
|---------------------------------|---------------------------------| 
|---------------------------------|-6-6-6-6-6-6-6-6-6-6-6-6-6-6-6-6-| 
|-6-6-6-6-6-6-6-6-6-6-6-6-6-6-6-6-|-6-6-6-6-6-6-6-6-6-6-6-6-6-6-6-6-| 
|-6-6-6-6-6-6-6-6-6-6-6-6-6-x-x-x-|-4-4-4-4-4-4-4-4-4-4-4-4-4-4-4-4-| 
|-4-4-4-4-4-4-4-4-4-4-4-4-4-x-x-x-|---------------------------------| 
repeat a coupla million times		"ooohh...you.." 
|---------------------------------|---------------------------------| 
|---------------------------------|---------------------------------| 
|---------------------------------|-6-6-6-6-6-6-6-6-9-9-9-9-9-9-9-9-| 
|-6-6-6-6-6-6-6-6-6-6-6-6-6-6-6-6-|-6-6-6-6-6-6-6-6-9-9-9-9-9-9-9-9-| 
|-6-6-6-6-6-6-6-6-6-6-6-6-6-x-x-x-|-4-4-4-4-4-4-4-4-7-7-7-7-7-7-7-7-| 
|-4-4-4-4-4-4-4-4-4-4-4-4-4-x-x-x-|---------------------------------| 
again...					2nd time "oooh you..." 
|-------------------| 
|-------------------| 
|-----------9-9-9-9-| 
|-6-6--9-9--9-9-9-9-| 
|-6-6--9-9--7-7-7-7-| 
|-4-4--7-7----------| 
"ITS A TRAP..." 
The rest you can figure out, its pretty easy - same as above really