Tabbed By: (Strider) Daniel King  
Email: [email protected]  
Standard Tuning 
 e 
~-vibrato 
b-bend 
p-pull off 
h-hammer on 
^-palm mute 
r-release hand preventing a ring out 
d- dub-out 
/-Slide 
DISTORTION THROUGHOUT (EXCEPT WHERE NOTED) 
Intro 
e-----------------------------------------------------------------|  
B-----------------------------------------------------------------|  
G-4/6-6-6-6-6-6-6--------------------------------1-1-1-1-1-1-1----| 
D-4/6-6-6-6-6-6-6-7-7-7-7-7-7-7-7-4-4-4-4-4-4-4--2-2-2-2-2-2-2----| 
A-2/4-4-4-4-4-4-4-7-7-7-7-7-7-7-7-4-4-4-4-4-4-4--2-2-2-2-2-2-2----| 
E-----------------5-5-5-5-5-5-5-0-2-2-2-2-2-2-2--0-0-0-0-0-0-0----| 
e-----------------------------------------------------------------|  
B-----------------------------------------------------------------|  
G-4/6-6-6-6-6-6-6--------------------------------1----------------| 
D-4/6-6-6-6-6-6-6-7-7-7-7-7-7-7-7-4-4-4-4-4-4-4--2----------------| 
A-2/4-4-4-4-4-4-4-7-7-7-7-7-7-7-7-4-4-4-4-4-4-4--2----------------| 
E-----------------5-5-5-5-5-5-5-0-2-2-2-2-2-2-2--0----------------| 
Verse 1 (x4) Finish after first bar on forth time around 
e-----------------------------------------------------------------|  
B-----------------------------------------------------------------|  
G-4/6-6-6-6-6-6-6--------------------------------1-1-1-1-1-1-1----| 
D-4/6-6-6-6-6-6-6-7-7-7-7-7-7-7-7-4-4-4-4-4-4-4--2-2-2-2-2-2-2----| 
A-2/4-4-4-4-4-4-4-7-7-7-7-7-7-7-7-4-4-4-4-4-4-4--2-2-2-2-2-2-2----| 
E-----------------5-5-5-5-5-5-5-0-2-2-2-2-2-2-2--0-0-0-0-0-0-0----| 
e-----------------------------------------------------------------|  
B-----------------------------------------------------------------|  
G-4/6-6-6-6-6-6-6--------------------------------1----------------| 
D-4/6-6-6-6-6-6-6-7-7-7-7-7-7-7-7-4-4-4-4-4-4-4--2----------------| 
A-2/4-4-4-4-4-4-4-7-7-7-7-7-7-7-7-4-4-4-4-4-4-4--2----------------| 
E-----------------5-5-5-5-5-5-5-0-2-2-2-2-2-2-2--0----------------| 
There's no inspiration just a pale transform in the eyes my worst enemy  
is hiding at my door and where did your wings go? Same place as mine. 
Well I can't catch her cause she's biting at my ankles and our wings are gone forever have you got 20 cents to buy some more? 
Chorus 
(~ACOUSTIC~) 
e-------0----0----0-0-0-0--------0----0----0-0-0-0--|  
B-2-2-2-2--2-2----2-2-2-2--0-0-0-0--0-0----0-0-0-0--|  
G-2-2-2-2--2-2-2--2-2-2-2--1-1-1-1--1-1-1--1-1-1-1--|(x3) 
D-2-2-2-2--2-2-2--2-2-2-2--2-2-2-2--2-2-2--2-2-2-2--| 
A-0-0-0-0--0-0-0--0-0-0-0--2-2-2-2--2-2-2--2-2-2-2--| 
E---------------------------------------------------| 
e-------0----0----0-0-0-0--|  
B-2-2-2-2--2-2----2-2-2-2--|  
G-2-2-2-2--2-2-2--2-2-2-2--| 
D-2-2-2-2--2-2-2--2-2-2-2--| 
A-0-0-0-0--0-0-0--0-0-0-0--| 
E--------------------------| 
I couldn't see I could fall, I couldn't see I could fall I couldn't see  
I could fall, I couldn't see that I could fall,I couldn't see? 
Verse 2 (As with Verse 1) 
By the time you read this I'll be fast asleep and waking all the faces  
growing in me, haven't been feeling human for a while now little teeth  
getting thinner and thinner every day. 
Well everything around me gets bigger and bigger elevating me its gone  
too far but I fed it 20 cents, it was my call. 
Chorus (~ACOUSTIC~) (As with Chorus sequence, x4) 
I couldn't see I could fall, I couldn't see I could fall I couldn't see  
I could fall, I couldn't see that I could fall,I couldn't see? 
Interlude (x3) 
e-----------------------------------------------------------------|  
B-----------------------------------------------------------------|  
G-7-9-9-9-9-9-9-9-9-9-9-9-9-9-9-9-9-7-7-7-7-7-7-7-7-7-7-7-7-7-7-7-| 
D-7-9-9-9-9-9-9-9-9-9-9-9-9-9-9-9-9-7-7-7-7-7-7-7-7-7-7-7-7-7-7-7-| 
A-5-7-7-7-7-7-7-7-7-7-7-7-7-7-7-7-7-5-5-5-5-5-5-5-5-5-5-5-5-5-5-5-| 
E-----------------------------------------------------------------| 
e-----------------------------------------------------------------|  
B-----------------------------------------------------------------|  
G-7--12-12-12-12--12-12-12-12--12-12-12--12-12-12-12--12-12-12-12-| 
D-7--12-12-12-12--12-12-12-12--12-12-12--12-12-12-12--12-12-12-12-| 
A-5--10-10-10-10--10-10-10-10--10-10-10--10-10-10-10--10-10-10-10-| 
E-----------------------------------------------------------------| 
e-----------------------------------------------------------------|  
B-----------------------------------------------------------------|  
G-12-12-12-12-----------------------------------------------------| 
D-12-12-12-12-----------------------------------------------------| 
A-10-10-10-10-----------------------------------------------------| 
E-----------------------------------------------------------------| 
My fall, my fall 
I couldn't see my fall  
I couldn't see my fall 
Bridge (As with Intro) 
Verse 3 (As with Intro, repeat) 
Is this really what you want, is this what you planned. 
Take a look inside your head and open up your hands.  
Did you know it would turn out this bad if you did it this way? 
Ending (~ACOUSTIC~) 
e-------0----0----0-0-0-0--------0----0----0-0-0-0--|  
B-2-2-2-2--2-2----2-2-2-2--0-0-0-0--0-0----0-0-0-0--|  
G-2-2-2-2--2-2-2--2-2-2-2--1-1-1-1--1-1-1--1-1-1-1--|(x7) 
D-2-2-2-2--2-2-2--2-2-2-2--2-2-2-2--2-2-2--2-2-2-2--| 
A-0-0-0-0--0-0-0--0-0-0-0--2-2-2-2--2-2-2--2-2-2-2--| 
E---------------------------------------------------| 
e--------0----0----0-0-0-0--0-----------------------|  
B--0-0-0-0--0-0----0-0-0-0--0-----------------------|  
G--1-1-1-1--1-1-1--1-1-1-1--1-Let Ring--------------| 
D--2-2-2-2--2-2-2--2-2-2-2--2-----------------------| 
A--2-2-2-2--2-2-2--2-2-2-2--2-----------------------| 
E---------------------------------------------------| 
I couldn't see I could fall, I couldn't see I could fall I couldn't see  
I could fall, I couldn't see that I could fall,I couldn't see? 
I couldn't see that I could fall 
I couldn't see that I could fall 
I wouldn't know you'd go, you'd go. 
Song Structure 
Intro 
Verse 1  
Chorus 
Verse 2 
Chorus 
Interlude 
Bridge 
Verse 3  
Ending