Verse 
|-----------------------------------------------------------------------|  
|-----------------------------------------------------------------------|  
|-----------------------------------------------3-----3-|  
|---8---8---------3---3(s)----8---8--------3-----3---| (Play this 3X)  
|-6---6---0(s)-1---1-------6---6---0(s)-1-----1-----|  
|-----------------------------------------------------------------------| 
Chorus 
|-----------------------------------------------------------------------|  
|-----------------------------------------------------------------------|  
|----------5---------------------3---------------|  
|---5---5------5--------3----3-------3---------| (Play over and over X)  
|-3---3-----3----3(s)1----1------1----1(s) 3-|  
|-----------------------------------------------------------------------|