Tabbed By: (Strider) Daniel King  
Email: [email protected]  
Standard tuning  
 e 
~-vibrato 
b-bend 
p-pull off 
h-hammer on 
p.m.-palm mute 
r-release hand preventing a ring out 
d- dub-out 
/-Slide 
ACOUSTIC- CAPO FIRST FRET 
Intro 
e|---3-3-3--3-3--3-3-3-3-3-3--3-3-3-3-3-3------|  
B|---3-3-3--3-3--3-3-3-3-3-3--3-3-3-3-3-3------|  
G|---0-0-0--2-2--0-0-0-0-0-0--0-0-0-0-0-0------| 
D|-0-0-0-0--0-0--2-x-x-x-x-x--x-x-x-x-x-x------| 
A|-x---------------3-3-3-3-3--3-3-3-3-3-3------| 
E|-3-------------------------------------------| 
e|-----3-3-3--3-3-3--3-3-3-3-3-3--3-3-3-3-3-3--|  
B|-----3-3-3--3-3-3--3-3-3-3-3-3--3-3-3-3-3-3--|  
G|-----0-0-0--2-2-2--0-0-0-0-0-0--0-0-0-0-0-0--| 
D|-0-0-0-0-0--0-0-0--2-x-x-x-x-x--x-x-x-x-x-x--| 
A|-x-x-x-x-x---------3-3-3-3-3-3--3-3-3-3-3-3--| 
E|-3-3-3-3-3-----------------------------------| 
Verse 1 (x4) 
e|-----3-3-3--3-3-3--3-3-3-3-3-3--3-3-3-3-3-3--|  
B|-----3-3-3--3-3-3--3-3-3-3-3-3--3-3-3-3-3-3--|  
G|-----0-0-0--2-2-2--0-0-0-0-0-0--0-0-0-0-0-0--|(Strumming Pattern  
D|-0-0-0-0-0--0-0-0--2-x-x-x-x-x--x-x-x-x-x-x--| Variation)  
A|-x-x-x-x-x---------3-3-3-3-3-3--3-3-3-3-3-3--| 
E|-3-3-3-3-3-----------------------------------| 
I'm shooting through the stars tonight 
Can't you see me I'm a flash of light 
Don't know where I'm heading, hopefully the moon 
Don't know where I'm heading but I hope I get there soon  
Chorus (x4) 
e|-3-3-3-3-3-3--3-3-3--3-3-3-3-3-3--3-3-3-3-3-3---|  
B|-3-3-3-3-3-3--3-3-3--3-3-3-3-3-3--3-3-3-3-3-3---|  
G|-0-0-0-0-0-0--2-2-2--0-0-0-0-0-0--0-0-0-0-0-0---|(Strumming Pattern  
D|-0-0-0-0-0-0--0-0-0--2-x-x-x-x-x--x-x-x-x-x-x---| Variation) 
A|-x-x-x-x-x-x---------3-3-3-3-3-3--3-3-3-3-3-3---| 
E|-3-3-3-3-3-3------------------------------------| 
Oh, morning 
I'll be back by morning, yeah! 
Morning, I'll be back by morning  
Verse 2 (x4) 
e|-3-3-3-3-3-3--3-3-3--3-3-3-3-3-3--3-3-3-3-3-3---|  
B|-3-3-3-3-3-3--3-3-3--3-3-3-3-3-3--3-3-3-3-3-3---|  
G|-0-0-0-0-0-0--2-2-2--0-0-0-0-0-0--0-0-0-0-0-0---|(Strumming Pattern  
D|-0-0-0-0-0-0--0-0-0--2-x-x-x-x-x--x-x-x-x-x-x---| Variation) 
A|-x-x-x-x-x-x---------3-3-3-3-3-3--3-3-3-3-3-3---| 
E|-3-3-3-3-3-3------------------------------------| 
To see the sun come up 
Trees unfold 
Wind keeps blowing dry 
And you know that I can't help him now, you know 
I just gotta fly when I 
See the look, in your eyes 
Love takes me away 
And I don't know where I'm going but I Know that I will stay 
Chorus (As with Chorus) 
Because I'm mourning 
Just because I'm mourning, yeh 
Mourning 
Just because I'm mourning 
Interlude (As with Chorus Sequence, x2) 
Verse 3 (As with Verse 2) 
I'm shooting through the stars tonight 
Can't you see me I'm a flash of light 
Don't know where I'm heading, hopefully the moon 
Don't know where I'm heading but I hope I get there soon  
Ending (As with Chorus Sequence, x12) 
e|-3-----------|  
B|-3-----------|  
G|-0-Let ring--| 
D|-0-----------| 
A|-x-----------| 
E|-3-----------| 
Oh, morning 
I'll be back by morning, yeah 
Morning, I'll be back by morning 
Song Structure 
Intro 
Verse 1 
Chorus 
Verse 2 
Chorus 
Interlude 
Verse 3 
Ending