Tabbed By: (Strider) Daniel King  
Email: [email protected]  
Standard tuning  
 e 
~-vibrato 
b-bend 
p-pull off 
h-hammer on 
p.m.-palm mute 
r-release hand preventing a ring out 
d- dub-out 
/-Slide 
ACOUSTIC 
Intro 
e|---2-2-2-2----0-0-0-0----0-0-0-0----0-0-0-0---|  
B|---3-3-3-3----3-3-3-3----3-3-3-3----3-3-3-3---|  
G|-2-2-2-2-2--0-0-0-0-0--0-0-0-0-0--0-0-0-0-0---|(x4) 
D|-0-0-0-0-0--2-2-2-2-2--2-2-2-2-2--2-2-2-2-2---| 
A|----------------------------------------------| 
E|----------------------------------------------| 
Ah how, how...o whoa oh oh ol 
Sweet home let them go 
Let them free 
Sweet home let them go 
And let them free 
Verse 1 
e|---2-2-2-2----0-0-0-0----0-0-0-0----0-0-0-0---|  
B|---3-3-3-3----3-3-3-3----3-3-3-3----3-3-3-3---|  
G|-2-2-2-2-2--0-0-0-0-0--0-0-0-0-0--0-0-0-0-0---|(x5) 
D|-0-0-0-0-0--2-2-2-2-2--2-2-2-2-2--2-2-2-2-2---| 
A|----------------------------------------------| 
E|----------------------------------------------| 
Now sweet home give me be 
To many here right now 
It'll never be a happy home 
With its people crying out 
Gotta listen to the tales 
We gotta shake off this denial 
Unbury the past, turn the clocks back a while 
Turn the clocks back a while 
Turn the clocks back now  
Chorus (As with Intro) 
Sweet home let them go 
oh let them free 
Sweet home let them go 
And let them free  
Sweet home now let them go 
oh let them free 
Sweet home let them go 
And let them free  
Post-Chorus 
e|-0-0-0-0-0-0-0-0-0-0-0--0-0-0-0-0-0-0-0-0-0-0---|  
B|-3-3-3-3-3-3-3-3-3-3-3--3-3-3-3-3-3-3-3-3-3-3---|  
G|-0-0-0-0-0-0-0-0-0-0-0--0-0-0-0-0-0-0-0-0-0-0---|(x4) 
D|-3-3-3-3-3-3-3-3-3-3-3--5-5-5-5-5-5-5-5-5-5-5---| 
A|------------------------------------------------| 
E|------------------------------------------------| 
Let them free... 
Verse 2 (As with Verse 1) 
I thought even that way back then 
People would understand 
It's not right to pull that sorta shit 
You don't steal other people's land 
Yeah it's hard to accept 
What went down from then till now 
All I know is we've gotta turn them 
We've gotta make it right somehow 
We've gotta make it right somehow 
Gotta make it right now  
Chorus (As with Intro) 
Sweet home let them go 
oh let them free 
Sweet home let them go 
And let them free  
Sweet home now let them go 
oh let them free 
Sweet home let them go 
And let them free  
Post-Chorus 
Let them free...  
Bridge 
e|-0-0-0-0-0-0--0-0-0-0-0-0-0--0-0-0-0-0-0--0-0-0-0-0-0---|  
B|-3-3-3-3-3-3--3-3-3-3-3-3-3--5-5-5-5-5-5--5-5-5-5-5-5---|  
G|-0-0-0-0-0-0--0-0-0-0-0-0-0--0-0-0-0-0-0--0-0-0-0-0-0---| 
D|-5-5-5-5-5-5--5-5-5-5-5-5-5--7-7-7-7-7-7--7-7-7-7-7-7---| 
A|--------------------------------------------------------| 
E|--------------------------------------------------------| 
e|-0-0-0-0-0-0--0-0-0-0-0-0-0--0--0--0--0--0--0----|  
B|-7-7-7-7-7-7--7-7-7-7-7-7-7--5--5--5--5--5--5----|  
G|-0-0-0-0-0-0--0-0-0-0-0-0-0--0--0--0--0--0--0----| 
D|-5-5-5-5-5-5--5-5-5-5-5-5-5--10-10-10-10-10-10---| 
A|-------------------------------------------------| 
E|-------------------------------------------------| 
e|-0--0--0--0--0--0----|  
B|-8--8--8--8--8--8----|  
G|-0--0--0--0--0--0----|(x4, incl. 3 bars above) 
D|-10-10-10-10-10-10---| 
A|---------------------| 
E|---------------------| 
You run, you ran 
You gave it all away 
You run, you ran 
You gave it all away 
You run, you ran 
You gave it all away 
You run, you ran 
You gave it all away...  
Pre-Outro (As with Intro sequence, x2) 
Ah how, how...oh woah woah woah, wha oh oh ol  
Outro 
e|---2-2-2-2----0-0-0-0----0-0-0-0----0-0-0-0---|  
B|---3-3-3-3----3-3-3-3----3-3-3-3----3-3-3-3---|  
G|-2-2-2-2-2--0-0-0-0-0--0-0-0-0-0--0-0-0-0-0---|(x3) 
D|-0-0-0-0-0--2-2-2-2-2--2-2-2-2-2--2-2-2-2-2---| 
A|----------------------------------------------| 
E|----------------------------------------------| 
e|---2-2-2-2----0-0-0-0--0-0--------------------|  
B|---3-3-3-3----3-3-3-3--3-3--------------------|  
G|-2-2-2-2-2--0-0-0-0-0--0-0--------------------| 
D|-0-0-0-0-0--2-2-2-2-2--2-2--------------------| 
A|----------------------------------------------| 
E|----------------------------------------------| 
Sweet home let them go 
oh let them free 
Sweet home let them go 
And let them free  
Sweet home now let them go 
oh let them free 
Sweet home let them go 
And let them free  
Song Structure 
Intro 
Verse 1 
Chorus 
Post-Chorus 
Verse 2 
Chorus 
Post Chorus 
Bridge 
Pre-Outro 
Outro