Tabbed By: (Strider) Daniel King  
Email: [email protected]  
Dropped  tuning  
 e 
~-vibrato 
b-bend 
p-pull off 
h-hammer on 
p.m.-palm mute 
r-release hand preventing a ring out 
d- dub-out 
/-Slide 
Intro (x2) 
e|------------------------------------------------------------|  
B|-12-12-12-12--12-12--12-12----------------------------------|  
G|-11-11-11-11--11-11--11-11----------------------------------| 
D|-9--9--9--9---9--9---9--9-(x2)--2--2-2-4--5-5-5-5-5-5-5-5---| 
A|-9--9--9--9---9--9---9--9-------2--2-2-4--5-5-5-5-5-5-5-5---| 
D|-9--9--9--9---9--9---9--9-------2--2-2-4--5-5-5-5-5-5-5-5---| 
Verse 1 (x4) 
e|------------------------------------------------------------|  
B|-12-12-12-12--12-12--12-12----------------------------------|  
G|-11-11-11-11--11-11--11-11----------------------------------| 
D|-9--9--9--9---9--9---9--9-(x2)--2--2-2-4--5-5-5-5-5-5-5-5---| 
A|-9--9--9--9---9--9---9--9-------2--2-2-4--5-5-5-5-5-5-5-5---| 
D|-9--9--9--9---9--9---9--9-------2--2-2-4--5-5-5-5-5-5-5-5---| 
You feel yourself alight then let go 
Dream of yourself tonight 
Then I know 
So where's the way you tried 
There I know 
You feel yourself, you're to light to let go  
Minor Chorus (x2) 
e|--------------------------------------------------|  
B|--------------------------------------------------|  
G|--------------------------------------------------| 
D|-2-2r--x-2-2r--2---2-2---5-5r--x-5-5r--5---5-5\---| 
A|-2-2r--x-2-2r--2---2-2---5-5r--x-5-5r--5---5-5\---| 
D|-2-2r--x-2-2r--2---2-2---5-5r--x-5-5r--5---5-5\---| 
So take it away from me 
I don't wanna see it 
I can hardly 
I can hardly 
I can hardly see it 
Pre-Verse (As with Intro) 
Verse 2 (As with Verse 1) 
You feel yourself alight then let go 
Dream of the world tonight 
The one I know 
You see her fly high 
Now you now 
And you feel it now 
You're too light to let go 
Minor Chorus (As with Minor Chorus above, then play) 
e|------------------------------------------------|  
B|------------------------------------------------|  
G|------------------------------------------------| 
D|-2-2--2-2-2--2---2-2\5--5-5--5-5-5--5---5-5\2---| 
A|-2-2--2-2-2--2---2-2\5--5-5--5-5-5--5---5-5\2---| 
D|-2-2--2-2-2--2---2-2\5--5-5--5-5-5--5---5-5\2---| 
So take it away from me 
I don't wanna see it 
I can hardly 
I can hardly 
I can hardly 
Take your pain away from me 
Now I, I don't wanna see it 
No I don't wanna see it 
I don't wanna see 
Chorus (x4) 
e|------------------------------------|  
B|------------------------------------|  
G|-4-4-4-4-4-4-4-4--7-7-7-7-7-7-7-7---| 
D|-4-4-4-4-4-4-4-4--7-7-7-7-7-7-7-7---| 
A|-2-2-2-2-2-2-2-2--5-5-5-5-5-5-5-5---| 
D|------------------------------------| 
e|------------------------------------|  
B|------------------------------------|  
G|------------------------------------| 
D|-5-5-5-5-5-5-5-5--2-2-2-2-2-2-2-2---| 
A|-5-5-5-5-5-5-5-5--2-2-2-2-2-2-2-2---| 
D|-5-5-5-5-5-5-5-5--2-2-2-2-2-2-2-2---| 
Take your pain away from me 
Now I, I don't wanna see it 
No I don't wanna see it 
No I don't wanna see 
Take your pain away from me 
Now I, I don't wanna see it 
No I don't wanna see it...  
Bridge (x7) 
e|------------------------------------|  
B|------------------------------------|  
G|-7-7-7-7-7-7-7-7--9-9-9-9-9-9-9-9---| 
D|-7-7-7-7-7-7-7-7--9-9-9-9-9-9-9-9---| 
A|-5-5-5-5-5-5-5-5--7-7-7-7-7-7-7-7---| 
D|------------------------------------| 
e|------------------------------------|  
B|------------------------------------|  
G|------------------------------------| 
D|-5-5-5-5-5-5-5-5--2-2-2-2-2-2-2-2---| 
A|-5-5-5-5-5-5-5-5--2-2-2-2-2-2-2-2---| 
D|-5-5-5-5-5-5-5-5--2-2-2-2-2-2-2-2---| 
Don't you really wanna be the one to make it 
Don't you just wanna find your bit and take you 
How do I have to try and make you feel my love 
How? Please and then you'll see no forgiveness 
How you're gonna get me this with no witness 
Don't you need somebody to sit and be your love 
Sit and be your love 
Sit and be your love 
Sit and be your love 
Your love...  
Outro 
e|--------------------------------------------------|  
B|--------------------------------------------------|  
G|--------------------------------------------------|(x2) 
D|-2-2r--x-2-2r--2---2-2---5-5r--x-5-5r--5---5-5\---| 
A|-2-2r--x-2-2r--2---2-2---5-5r--x-5-5r--5---5-5\---| 
D|-2-2r--x-2-2r--2---2-2---5-5r--x-5-5r--5---5-5\---| 
e|--------------------------------------------------|  
B|--------------------------------------------------|  
G|--------------------------------------------------|  
D|-2-2r--x-2-2r--2---2-2---5-5r--x-5-5-let ring-----| 
A|-2-2r--x-2-2r--2---2-2---5-5r--x-5-5--------------| 
D|-2-2r--x-2-2r--2---2-2---5-5r--x-5-5--------------| 
Take it away from me 
I don't wanna see it 
No I don't wanna see 
Song Structure 
Intro 
Verse 1 
Minor-Chorus 
Pre-Verse 
Verse 2 
Minor Chorus 
Chorus 
Bridge 
Outro