Album: Heavensent (Single) 
Tabbed By: (Strider) Daniel King  
Email: [email protected]  
Dropped  Tuning 
 e 
~-vibrato 
b-bend 
p-pull off 
h-hammer on 
^-palm mute 
r-release hand preventing a ring out 
d- dub-out 
/-Slide 
Intro 
e|------0--0-0--0-0--0-0---0-0-0-0--0-0-0-0--0-0-0-0--0-0-0-0--|  
B|------0--0-0--0-0--0-0---0-0-0-0--0-0-0-0--0-0-0-0--0-0-0-0--|  
G|-7-7--9r-9-9r-9-9r-9-9r--9-9-9-9r-7-7-7-7r-7-7-7-7r-7-7-7-7r-| 
D|-7-7--9r-9-9r-9-9r-9-9r--9-9-9-9r-7-7-7-7r-7-7-7-7r-7-7-7-7r-| 
A|-5-5--7--7-7--7-7--7-7---7-7-7-7--5-5-5-5--5-5-5-5--5-5-5-5--| 
D|-5-5--7--7-7--7-7--7-7---7-7-7-7--5-5-5-5--5-5-5-5--5-5-5-5--| 
e|-0-0-0-0--0-0-0-0--0-0-0-0--0-0-0-0-0--0-0-0-0-0--0-0-0-0----|  
B|-0-0-0-0--0-0-0-0--0-0-0-0--0-0-0-0-0--0-0-0-0-0--0-0-0-0----|  
G|-9-9-9-9r-9-9-9-9r-9-9-9-9r-7-7-7-7-7--7-7-7-7-7--7-7-7-7----| 
D|-9-9-9-9r-9-9-9-9r-9-9-9-9r-7-7-7-7-7--7-7-7-7-7--7-7-7-7----| 
A|-7-7-7-7--7-7-7-7--7-7-7-7--5-5-5-5-5--5-5-5-5-5--5-5-5-5----| 
D|-7-7-7-7--7-7-7-7--7-7-7-7--5-5-5-5-5--5-5-5-5-5--5-5-5-5----| 
e|-0-0-0-0--0-0-0-0---0-0-0-0--0-0-0-0--0-0-0-0--0-0-0-0-------|  
B|-0-0-0-0--0-0-0-0---0-0-0-0--0-0-0-0--0-0-0-0--0-0-0-0-------|  
G|-9-9-9-9r-9-9-9-9r--9-9-9-9--7-7-7-7r-7-7-7-7r-7-7-7-7-------| 
D|-9-9-9-9r-9-9-9-9r--9-9-9-9--7-7-7-7r-7-7-7-7r-7-7-7-7-------| 
A|-7-7-7-7--7-7-7-7---7-7-7-7--5-5-5-5--5-5-5-5--5-5-5-5-------| 
D|-7-7-7-7--7-7-7-7---7-7-7-7--5-5-5-5--5-5-5-5--5-5-5-5-------| 
e|-0-0-0-0--0-0-0-0--0-0-0-0--0-0-0-0-0--0-0-0-0-0--0-0-0-0----|  
B|-0-0-0-0--0-0-0-0--0-0-0-0--0-0-0-0-0--0-0-0-0-0--0-0-0-0----|  
G|-9-9-9-9r-9-9-9-9r-9-9-9-9--7-7-7-7-7--7-7-7-7-7--7-7-7-7----| 
D|-9-9-9-9r-9-9-9-9r-9-9-9-9--7-7-7-7-7--7-7-7-7-7--7-7-7-7----| 
A|-7-7-7-7--7-7-7-7--7-7-7-7--5-5-5-5-5--5-5-5-5-5--5-5-5-5----| 
D|-7-7-7-7--7-7-7-7--7-7-7-7--5-5-5-5-5--5-5-5-5-5--5-5-5-5----| 
Verse 1 (x8) 
e|-0-0-0-0-0-0-0-0-0--0-0-0-0-0-0-0-0-0--|  
B|-0-0-0-0-0-0-0-0-0--0-0-0-0-0-0-0-0-0--|  
G|-9-9-9-9-9-9-9-9-9--7-7-7-7-7-7-7-7-7--| 
D|-9-9-9-9-9-9-9-9-9--7-7-7-7-7-7-7-7-7--| 
A|-7-7-7-7-7-7-7-7-7--5-5-5-5-5-5-5-5-5--| 
D|-7-7-7-7-7-7-7-7-7--5-5-5-5-5-5-5-5-5--| 
Do I always stress you it?  
And do I need to worry now?  
Can I, can I still come up for air? 
Is it that I didn't know?  
Is it that I let you go?  
Now I, didn't mean to leave you there... 
Chorus (x2) 
e|--------------------------------------------------|  
B|--------------------------------------------------|  
G|---6-6---6-----6-----7/6---6-----6-----6-----7/6--| 
D|-----------------0-----------0-----------0--------| 
A|--------------------------------------------------| 
D|-4-----4---4-5-----5-----4-----4---4-5-----5------| 
e|--------------------------------------------------|  
B|--------------------------------------------------|  
G|---6-----6-----6-----7/6---6-----6-----6-----7/6--| 
D|-----0-----------0-----------0-----------0--------| 
A|--------------------------------------------------| 
D|-4-----4---4-5-----5-----4-----4---4-5-----5------| 
Yeah, I heard what you said, yeah, I felt it in your bed.  
Oh can I come up for air?  
Verse 2 (As with Verse 1) 
Is it that I didn't know?  
Is it that I let You go?  
Now I didn't mean to take it.  
Do I always stress you out? 
And do I need to worry now?  
Can I, can I still come up for air? 
Chorus 
e|---------------------------------------------------| 
B|---------------------------------------------------| 
G|---6-----6-----6-----7/6---6-----6-----6-----7/6---| 
D|-----0-----------0-----------0-----------0---------| 
A|---------------------------------------------------| 
D|-4-----4---4-5-----5-----4-----4---4-5-----5-------| 
e|---------------------------------------------------|  
B|---------------------------------------------------|  
G|---6-----6-----6-----7/6---6-----6-----6-6-6--6-7--| 
D|-----0-----------0-----------0-----------x-x--x-x--| 
A|-----------------------------------------x-x--x-x--| 
D|-4-----4---4-5-----5-----4-----4---4-5-------------| 
Yeah, Cos I heard what u said.  
Yeah I felt it in your bed, 
Oh, can I come up for air?  
Verse 3 (x4) 
e|-0-0-0-0-0-0-0--0-0-0-0-0-0-0--0-0-0-0-0-0-0--0-0-0-0-0-0-0--|  
B|-0-0-0-0-0-0-0--0-0-0-0-0-0-0--0-0-0-0-0-0-0--0-0-0-0-0-0-0--|  
G|-7-7-7-7-7-7-7--9-9-9-9-9-9-9--7-7-7-7-7-7-7--7-7-7-7-7-7-7--| 
D|-7-7-7-7-7-7-7--9-9-9-9-9-9-9--7-7-7-7-7-7-7--7-7-7-7-7-7-7--| 
A|-5-5-5-5-5-5-5--7-7-7-7-7-7-7--5-5-5-5-5-5-5--5-5-5-5-5-5-5--| 
D|-------------------------------------------------------------| 
Well I'm so sorry now 
But I have more to me  
Well and I try and take u down (Repeat) 
Interlude 
e|-0--0--0--0--0--0--0--0--0---0-0-0-0-0-0-0-0-0--|  
B|-0--0--0--0--0--0--0--0--0---0-0-0-0-0-0-0-0-0--|  
G|-11-11-11-11-11-11-11-11-11--9-9-9-9-9-9-9-9-9--| 
D|-11-11-11-11-11-11-11-11-11--9-9-9-9-9-9-9-9-9--| 
A|-9--9--9--9--9--9--9--9--9---7-7-7-7-7-7-7-7-7--| 
D|------------------------------------------------| 
e|-0-0-0-0-0-0-0-0-0--x-x--x-x-x-x-x-x--x-x-------|  
B|-0-0-0-0-0-0-0-0-0--x-x--x-x-x-x-x-x--x-x-------|  
G|-7-7-7-7-7-7-7-7-7--4-4--4-4-4-4-4-4--x-x-------|(x3) Above two bars 
D|-7-7-7-7-7-7-7-7-7--4-4--4-4-4-4-4-4--x-x-------| Slight variation 
A|-5-5-5-5-5-5-5-5-5--2-2--2-2-2-2-2-2--x-x-------| 
D|------------------------------------------------|  
e|-0--0--0--0--0--0--0--0--0--0--0---0-0-0-0-0-0-0-0-0-0-0--|  
B|-0--0--0--0--0--0--0--0--0--0--0---0-0-0-0-0-0-0-0-0-0-0--|  
G|-11-11-11-11-11-11-11-11-11-11-11--9-9-9-9-9-9-9-9-9-9-9--| 
D|-11-11-11-11-11-11-11-11-11-11-11--9-9-9-9-9-9-9-9-9-9-9--| 
A|-9--9--9--9--9--9--9--9--9--9--9---7-7-7-7-7-7-7-7-7-7-7--| 
D|----------------------------------------------------------| 
e|-x-x--x-x-x-x-x-x-x--x-x--x-x-x-x-x-x-x-------------------|  
B|-x-x--x-x-x-x-x-x-x--x-x--x-x-x-x-x-x-x-------------------|  
G|-9-9--9-9-9-9-9-9-9--9-9--9-9-9-9-9-9-9-------------------| 
D|-9-9--9-9-9-9-9-9-9--9-9--9-9-9-9-9-9-9-------------------| 
A|-7-7--7-7-7-7-7-7-7--7-7--7-7-7-7-7-7-7-------------------| 
D|----------------------------------------------------------| 
Whoa, whoa, whoa...yeah ehhh ar now now, ar now naw now 
Whoa, whoa, whoa...yeah where, where, where 
Well, well, well 
Ending (x4) 
e|-0-0-0-0-0-0-0-0-0--0-0-0-0-0-0-0-0-0--|  
B|-0-0-0-0-0-0-0-0-0--0-0-0-0-0-0-0-0-0--|  
G|-9-9-9-9-9-9-9-9-9--7-7-7-7-7-7-7-7-7--| 
D|-9-9-9-9-9-9-9-9-9--7-7-7-7-7-7-7-7-7--| 
A|-7-7-7-7-7-7-7-7-7--5-5-5-5-5-5-5-5-5--| 
D|-7-7-7-7-7-7-7-7-7--5-5-5-5-5-5-5-5-5--| 
Play this on forth time round instead of above sequence 
e|-0-0-0-0-0-0-0---------0-0--0----0--|  
B|-0-0-0-0-0-0-0---------0-0--0----0--|  
G|-9-9-9-9-9-9-9---9-9-9-9-11-7-7--7--| 
D|-9-9-9-9-9-9-9---9-9-9-9-11-7-7--7--| 
A|-7-7-7-7-7-7-7---7-7-7-7-9--7-5--5--| 
D|-7-7-7-7-7-7-7---7-7-7-7-9--7-5--5--| 
Do I always stress you out? 
And do I need to worry now?  
And can I, can I still come up for air? 
Song Structure 
Intro 
Verse 1 
Chorus 
Verse 2 
Chorus 
Verse 3 
Interlude 
Ending