Australia 
Fearless Fly - Magic Dirt 
Intro Guitar one 
|----------------------------------------------------------------- 
|----------------------------------------------------------------- 
|-13-13--131313--10-10-10101010--12--8-888--12--8-8-8888---------- 
|-13-13--131313--10-10-10101010--12--8-888--12--8-8-8888---------- 
|-11-11--111111--8--8--8-8-8-8---10--6-666--10--6-6-6666---------- 
|----------------------------------------------------------------- 
Intro Guitar two 
|----------------------------------------------------------------- 
|----------------------------------------------------------------- 
|-13-13--131313--13-13-13131313--13--13-131313--13--13-13-13131313 
|-13-13--131313--13-13-13131313--13--13-131313--13--13-13-13131313 
|-11-11--111111--11-11-11111111--11--11-111111--11--11-11-11111111 
|----------------------------------------------------------------- 
Verse 
|----------------------------------------------------------------- 
|----------------------------------------------------------------- 
|--13-13-131313--10-10-10101010--12-12-121212--8-8-8888----------- 
|--13-13-131313--10-10-10101010--12-12-121212--8-8-8888----------- 
|--11-11-111111--8--8--8-8-8-8---10-10-101010--6-6-6666----------- 
|----------------------------------------------------------------- 
First lead part 
|----------------------------------------------------------------- 
|----------------------------------------------------------------- 
|--7-8--5-8----5-7--3-5------------------------------------------- 
|----------------------------------------------------------------- 
|----------------------------------------------------------------- 
|----------------------------------------------------------------- 
Chorus 
|----------------------------------------------------------------- 
|----------------------------------------------------------------- 
|--13-13-131313--10-12-10----------------------------------------- 
|--13-13-131313--10-12-10----------------------------------------- 
|--11-11-111111--8--10-8------------------------------------------ 
|----------------------------------------------------------------- 
Second lead part 
|----------------------------------------------------------------- 
|----------------------------------------------------------------- 
|----------------------------------------------------------------- 
|----------------------------------------------------------------- 
|----------------------------------------------------------------- 
|--not too hard. I am lazy. I'll leave it to you------------------ 
end noise bit 
what ever you want to do. 
New bassline emerges 
Otherwise bass follows rhythm guitar throughout 
Ben ([email protected])