Intro 
                         Eflat5  
E------------------------------------------ 
B------------------------------------------ 
G---------------------13------------------- 
D----9-8-9-8---8-9-11-13------------------- 
A-11---------9--------11------------------- 
E------------------------------------------ 
Main riff 
E------------------------------------------ 
B------------------------------------------ 
G------------------------------------------ 
D----9-8-9-8---8-9-11-9----9-8-9-8---8-11-9 
A-11---------9----------11---------9------- 
E------------------------------------------ 
Chorus 
 Eflat5 Aflat5 (4X) 
Chorus Outro (2X) 
E--------------------------------- 
B--------------------------------- 
G---4-3-4-3---3-4-3-4---3-4-3-4--- 
D-6---------4---------2---------1- 
A--------------------------------- 
E--------------------------------- 
Solo (over main riff) 
E---------------------------------------16- 
B------------------------16-----14-16------ 
G-8--------------8-6-4--------------------- 
D------------------------------------------ 
A------------------------------------------ 
E------------------------------------------ 
Eflat5 
            e 
11-13-13-x-x-x 
            e 
x-11-13-13-x-x 
Aflat5 
            e 
12-14-14-x-x-x 
         e 
x-9-9-x-x-x 
Verse... 
funny how i take it all wrong.... 
Chorus (as is already noted by Bonnie) 
    Eflat5              Aflat5 
      Don't you know that...    redhead cat