Tabbed By Sean 
Into Rythm : Chords Used  
------------------------------------------------------------ 
------------------------------------------------------------ 
------------------------------------------------------------ 
--------11------------13--------------7--------------9------ 
--------11------------13--------------7--------------9------ 
--------9-------------11--------------5--------------7------ 
Intro Lead : All the lead parts are difficult to tab because I think the effects used stuff up the octaves, or something like that. But I just play it like this :  
--------------------------------------------------------- 
--------------------------------------------------------- 
---------------------------------------------------------- 
-------12--12--14--14--12--12--14--14--12--14--16-------- (*4) 
---------------------------------------------------------- 
---------------------------------------------------------- 
Verse :  
-------------------------------------------------------- 
-------------------------------------------------------- 
-------------------------------------------------------- 
----11--11---11--11--------14--14-----14-- 14----------- 
----11--11---11--11--------14--14-----14---14----------- 
-----9---9----9---9--------12--12-----12---12----------- 
Pre- Chorus :  
------------------------------- 
------------------------------- 
------------------------------- 
---------777---9---99999------- 
---------777---9---99999------- 
---------555---7---77777------- 
Chorus (Adalita) :  
------------------------------- 
------------------------------- 
------------------------------- 
---------4444-----77777-------- 
---------4444-----77777-------- 
---------2222-----55555-------- 
Chorus (Raul) :  
------------------------------- 
------------------------------- 
----1111----------------------- 
----2222------77777------------ 
----2222------77777------------ 
--------------55555------------