Track: 3 
Song : 1010011010 
Part : Guitar 
Tuning: CGCFAD 
Tabbed: Sam Price aka Bluey 
Email :  
Visit : www.tooltabs.net/cog/ 
Legend 
nh - natural harmonic   ph - pinch harmonic 
pm - palm mute          x - muted string 
h - hammer on           p - pull off 
\\ - slide down         // - slide up 
b - bend                ~~ - vibrato 
<7> - natural harmonic  x/// - pick scrape (directions same as slide) 
Clean 
D---|-----------------------------| 
A---|-----------------------------| 
F---|-----------------------------| 
C---|-----------------------------| 
G-0-|-0---0---0-0---0---0---0---0-| 
C---|---8---8-----8---8---8---8---| 
Let Ring__________________________| 
0:41 
D---------------------------- 
A---------------------------- 
F---------------------------- 
C---------------------------- 
G---------------------------- 
C-x\\\----x\\\--------------- 
0:48 
D--------------------------------------| 
A--------------------------------------| 
F----------------------------10-9------| x4 
C---8------7------7--------8-------5---| 
G----------------------7\5-------------| 
C-7------8------7------7\5-------------| 
1:46 
Distortion 
D----------------------------| 
A----------------------------| 
F----------------------------| x4 
C----------------------------| 
G-8--7--8--------------------| 
C-8--7--8---------7--8--7-0--| 
2:00                                 x3| 
D--------------------------------------|---------------------| 
A--------------------------------------|---------------------| 
F--------------------------------------|---------------------| 
C--------------------------------------|---------------------| 
G-8--7--8--7-7-7-7-7-7-7-7-------------|-8-7-8-7-7-8-8-7-8-7-| 
C-8--7--8--7-7-7-7-7-7-7-7--7--8--7-0--|-8-7-8-7-7-8-8-7-8-7-| 
         pm_______________| 
D-----------------------------|----------------------------------| 
A--------(ten)----------------|----------------------------------| 
F--------10101010101010101010-|--------999999999999999999--------| 
C----888----------------------|----777---------------------------| 
G-----------------------------|----------------------------------| 
C-777-------------------------|-888------------------------------| 
D-----------------------------|--------------------------| 
A-----------------------------|--------------------------| 
F--------999999999999999999---|---------101010-999-------| 
C----777----------------------|-----888-----------555555-| 
G----------------------------7\555-----------------------| 
C-777------------------------7\555-----------------------| 
D-----------------------------|----------------hold-bend---------| 
A-----------------------------|----------------------------------| 
F--------10101010101010101010-|--------9999999b999999999r99------| 
C----888----------------------|----777---------------------------| 
G-----------------------------|----------------------------------| 
C-777-------------------------|-888------------------------------| 
D--------------------------|----------------------| 
A--------------------------|----------------------| 
F--------------------------|--------10--9---------| 
C----7--7--7--7--7--7------|----------------------| 
G-7--7--7--7--7--7--7-----7\5-5--8--8---8----0----| 
C-7--7--7--7--7--7--7-----7\5-5--8--8---8----0----| 
D---------------------------|----------------| 
A---------------------------|----------------| 
F---------------------------|-----10-9-------| 
C-8--7--8-------------------|---8------8ph---| 
G-8--7--8-(Hold)------------|----------------| 
C-8--7--7------------------7\5---------------| 
           Panning L-R 
D----------------------------| 
A----------------------------| 
F----------------------------| 
C----------------------------| x4 
G----------------------------| 
C-8-7--8--7--7--8--8--7--8-7-| 
D---------------------------------------| 
A---------------------------------------| 
F---------------------------------------| 
C---------------------------------------| x4 
G-8-7--8--7--7--8--8/10-10--------------| 
C-8-7--8--7--7--8--8/10-10--7--8--7-0---| 
D--------------------------- 
A--------------------------- 
F--------------------------- 
C--------------------------- 
G-8-7--8--7--7--8--8--7--8-- 
C-8-7--8--7--7--8--8--7--8-- 
D------------------------------| 
A------------------------------| 
F------------------------------| 
C------------------------------| x 
G------------------------------| 
C-12-0-0-13-0-0-12-0-0-10-0-0--| 
4:04                     x3| 
D--------------------------|----------------------| 
A--------------------------|----------------------| 
F----14-14-14-14-14-14-14--|----14-14-14-14bb--15-| 
C-12-13-13-13-13-13-13-13--|-12-13-13-13-13bb--14-| 
G-12-12-12-12-12-12-12-12--|-12-12-12-12-12bb--13-| 
C-12-----------------------|-12---------(gradual)-| 
4:14 
D------------------------------------------------------| 
A------------------------------------------------------| 
F------------------------------------------------------| 
C-13-11-12-13---13-11-12-0---13-11-12\1--/13-11-12-0---| 
G-13-11-12-13---13-11-12-0---13-11-12\1--/13-11-12-0---| 
C-13-11-12-13---13-11-12-0---13-11-12\1--/13-11-12-0---| 
4:19                        x2| 
D-----------------------------| 
A-----------------------------| 
F-----------------------------| 
C-12-0-0-13-0-0-12-0-0-10-0-0-| 
G-12-0-0-13-0-0-12-0-0-10-0-0-| 
C-12-0-0-13-0-0-12-0-0-10-0-0-| 
4:24 
D-----------------------------------|------------------------------| 
A-----------------------------------|------------------------------| 
F-----------------------------------|------------------------------| 
C-12--0-/13--13--0--12--12--10--10--|-12-0-0--13-0-0--7/10--10--10-| 
G-12--0-/13--13--0--12--12--10--10--|-12-0-0--13-0-0--7/10--10--10-| 
C-12--0-/13--13--0--12--12--10--10--|-12-0-0--13-0-0--7/10--10--10-| 
Clean 
D-----------------------------| 
A-----------------------------| 
F-----------------------------| 
C-----------------------------| x 
G-0---0---0-0---0---0---0---0-| 
C---8---8-----8---8---8---8---| 
Let Ring______________________| 
Distortion 
D-----------------------------| 
A-----------------------------| 
F-----------------------------| 
C-----------------------------| x 
G-0---0---0-0---0---0---0---0-| 
C---8---8-----8---8---8---8---| 
Let Ring______________________| 
Clean Again 
D-----------------------------| 
A-----------------------------| 
F-----------------------------| 
C-----------------------------| x 
G-0---0---0-0---0---0---0---0-| 
C---8---8-----8---8---8---8---| 
Let Ring______________________|