Part : Guitar 
Tuning: CGCF#BD 
Tabbed: Sam Price aka Bluey 
Email :  
Visit : www.tooltabs.net/cog/ 
Legend 
nh - natural harmonic   ph - pinch harmonic 
pm - palm mute          x - muted string 
h - hammer on           p - pull off 
\\ - slide down         // - slide up 
b - bend                ~~ - vibrato 
<7> - natural harmonic  x/// - pick scrape (directions same as slide) 
X = heavy mute          # = Sarcasm 
Tuning C G C F# B D 
Delay pedal is on through the whole song 
   Clean 
   0:26 
 D|-------------------------------------| 
 B|-------------------------------------| 
F#|-------------------------------------| 
 C|----11---------------------12--------| x4 
 G|----11-------------------9-----------| 
 C|----11-----------------9-------------| 
       X          let ring............. 
   0:57 
 D|---------------------------------------------------| 
 B|---------------------------------------------------| 
F#|----------19-19-19-19-19-19-0-0-0-0-0--------------| 
 C|----11---------------------------------------12----| 
 G|----11-------------------------------------9-------| 
 C|----11-----------------------------------9---------| 
       X                                   ......... 
 D|---------------------------------------------------| 
 B|----------19-19-19-19-19-19-0-0-0-0-0--------------| 
F#|---------------------------------------------------| 
 C|----11---------------------------------------12----| 
 G|----11-------------------------------------9-------| 
 C|----11-----------------------------------9---------| 
       X                                   ......... 
 D|----------19-19-19-19-19-19-0-0-0-0-0--------------| 
 B|---------------------------------------------------| 
F#|---------------------------------------------------| 
 C|----11---------------------------------------12----| 
 G|----11-------------------------------------9-------| 
 C|----11-----------------------------------9---------| 
       X                                   ......... 
 D|------------<12>--------------| 
 B|------------<12>--------------| 
F#|------------<12>--------------| 
 C|----11------------------12----| 
 G|----11----------------9-------| 
 C|----11--------------9---------| 
       X              ......... 
   1:28 
 D|-------------------------------------| 
 B|-------------------------------------| 
F#|-------------------------------------| 
 C|----11---------------------12--------| x4 
 G|----11-------------------9-----------| 
 C|----11-----------------9-------------| 
       X          let ring............. 
   2:00 
 D|---------------------------------------------------| 
 B|---------------------------------------------------| 
F#|----------19-19-19-19-19-19-0-0-0-0-0--------------| 
 C|----11---------------------------------------12----| 
 G|----11-------------------------------------9-------| 
 C|----11-----------------------------------9---------| 
       X                                   ......... 
 D|---------------------------------------------------| 
 B|----------19-19-19-19-19-19-0-0-0-0-0--------------| 
F#|---------------------------------------------------| 
 C|----11---------------------------------------12----| 
 G|----11-------------------------------------9-------| 
 C|----11-----------------------------------9---------| 
       X                                   ......... 
 D|----------19-19-19-19-19-19-0-0-0-0-0--------------| 
 B|---------------------------------------------------| 
F#|---------------------------------------------------| 
 C|----11---------------------------------------12----| 
 G|----11-------------------------------------9-------| 
 C|----11-----------------------------------9---------| 
       X                                   ......... 
 D|------------<12>---- 
 B|------------<12>---- 
F#|------------<12>---- 
 C|----11-------------- 
 G|----11-------------- 
 C|----11-------------- 
       X               
   2:26 
 D|------------------------------------------------------------------| 
 B|--------0-------------0----------------0------------------0-------| 
F#|-5--5-5-5----4/8--8-8-8----8/10--10-10-10----10/13--13-13-13--13--| 
 C|-4--4-4-4----5/7--7-7-7----7/9---9--9--9-----9-/12--12-12-12--12--| x2 
 G|------------------------------------------------------------------| 
 C|------------------------------------------------------------------| 
   Distortion 
   2:42 
 D|--------------------------------------------| 
 B|------0-------------------------------------| 
F#|------0-------------------------------------| 
 C|-11-------------------------------12--------| 
 G|-11-----------------------------9-----------| 
 C|-11------2-2-2-2-2/6-6-6-6-6--9-------------| 
    X                            ............. 
 D|--------------------------------------------| 
 B|------0-------------------------------------| 
F#|------0-------------------------------------| 
 C|-11-------------------------------12--------| 
 G|-11-----------------------------9-----------| 
 C|-11------0-0-0-0-0/7-7-7-7----9-------------| 
    X                            ............. 
 D|----------------------------------------------| 
 B|------0---------------------------------------| 
F#|------0---------------------------------------| 
 C|-11---------------------------------12--------| 
 G|-11-------------------------------9-----------| 
 C|-11------2-2-2-2-2/6-6-6-6-6----9-------------| 
    X                              ............. 
 D|--------------------------------------------------------------| 
 B|------0-------------------------------------------------------| 
F#|------0-------------------------------------------------------| 
 C|-11--------------------------------12----12-12-12-12-12-12-12-| 
 G|-11------------------------------9----------------------------| 
 C|-11-------0-0-0-0-0/7-7-7-7-7--9------------------------------| 
    X                             ......... 
 D|------------------------------------------------------------------------| 
 B|------0-----------------------------------------------------------------| 
F#|------0---19-19-19-19-19-19-0-0-0-0-0-----------------------------------| 
 C|-11------------------------------------------12----12-12-12-12-12-12-12-| 
 G|-11----------------------------------------9----------------------------| 
 C|-11--------------------------------------9------------------------------| 
    X                                      ......... 
 D|------------------------------------------------------------------------| 
 B|------0---19-19-19-19-19-19-0-0-0-0-0-----------------------------------| 
F#|------0-----------------------------------------------------------------| 
 C|-11------------------------------------------12----12-12-12-12-12-12-12-| 
 G|-11----------------------------------------9----------------------------| 
 C|-11--------------------------------------9------------------------------| 
    X                                      ......... 
 D|----------19-19-19-19-19-19-0-0-0-0-0-----------------------------------| 
 B|------0-----------------------------------------------------------------| 
F#|------0-----------------------------------------------------------------| 
 C|-11------------------------------------------12----12-12-12-12-12-12-12-| 
 G|-11----------------------------------------9----------------------------| 
 C|-11--------------------------------------9------------------------------| 
    X                                      ......... 
 D|----------<12>-----------------------------------| 
 B|------0---<12>-----------------------------------| 
F#|------0---<12>-----------------------------------| 
 C|-11-------------------12----12-12-12-12-12-12-12-| 
 G|-11-----------------9----------------------------| 
 C|-11---------------9------------------------------| 
    X               ......... 
   3:44 
 D|------------------------------------------------------------------| 
 B|--------0-------------0----------------0------------------0-------| 
F#|-5--5-5-5----4/8--8-8-8----8/10--10-10-10----10/13--13-13-13--13--| 
 C|-4--4-4-4----5/7--7-7-7----7/9---9--9--9-----9-/12--12-12-12--12--| x2 
 G|------------------------------------------------------------------| 
 C|------------------------------------------------------------------| 
 D|-------------------------------------------0--- 
 B|-----------0---------------0---------------0--- 
F#|-13--13-13-13----13--13-13-13----13--13-13-13/- 
 C|-12--12-12-12----12--12-12-12----12--12-12-12/- 
 G|----------------------------------------------- 
 C|----------------------------------------------- 
 D|---------------------------------------------------------------------| 
 B|-----------0-----------------0-----------------0-------------0-------| 
F#|/17--17-17-17--17--15--15-15-15--15--13--13-13-13--13/15-15--15--15--| 
 C|/16--16-16-16--16--14--14-14-14--14--12--12-12-12--12/14-14--14--14--| x2 
 G|---------------------------------------------------------------------| 
 C|---------------------------------------------------------------------| 
 D|--------0----------------0----------------0----------------0---------| 
 B|-------------0----------------0----------------0----------------0----| 
F#|/17--17---17---17-15--15---15---15-13--13---13---13--15-15---15---15-| 
 C|/16--16---16---16-14--14---14---14-12--12---12---12--14-14---14---14-| x2 
 G|---------------------------------------------------------------------| 
 C|---------------------------------------------------------------------| 
   4:52                                  |5:16 
 D|-0--0--0--0--0--0--0--0--0--0--0--0---|-0--0--0--0--0--0--0--0--0--0--- 
 B|-12-12-12-12-12-12h13p12-12h13p12-12--|/15-15-15-15-15/17-17-17-17-17-- 
F#|--------------------------------------|-------------------------------- 
 C|--------------------------------------|-------------------------------- 
 G|--------------------------------------|-------------------------------- 
 C|--------------------------------------|-------------------------------- 
    play something like this a few times | then this once 
   5:24 
 D|----------0-------------------------------0----------------------- 
 B|----------0-------------------------------0----------------------- 
F#|----------0-------------------------------0----------------------- 
 C|-4---4--4----4---4--4-4/7--7--7--6---6--6----6---6--6-6\4--4--4--- 
 G|------------------------------------------------------------------ 
 C|-4---4--4----4---4--4-4/7--7--7--6---6--6----6---6--6-6\4--4--4--- 
 D|-----------0--------------------------------0------------- 
 B|-----------0--------------------------------0------------- 
F#|-----------0--------------------------------0------------- 
 C|-4/7--7--7----7--7--7-7\4--4--4--4/6---6--6------6--6/7--- 
 G|---------------------------------------------------------- 
 C|-4/7--7--7----7--7--7-7\4--4--4--4/6---6--6------6--6/7--- 
 D|----------0-------------------------------0-------------------0---- 
 B|----------0-------------------------------0-------------------0---- 
F#|----------0-------------------------------0-------------------0---- 
 C|-4---4--4----4---4--4-4/7--7--7--6---6--6----6/11---9---7---7------ 
 G|------------------------------------------------------------------- 
 C|-4---4--4----4---4--4-4/7--7--7--6---6--6----6/11---9---7---7------ 
 D|-----------------------0----------0------------- 
 B|-----------------------0----------0------------- 
F#|-----------------------0----------0------------- 
 C|-7\4--4--4--4/6---6--6-----\2--2-----2---------- 
 G|------------------------------------------------ 
 C|-7\4--4--4--4/6---6--6-----\2--2-----2---------- 
**************************************************************************** 
******************     They Only Play This Bit Live     ******************** 
**************************************************************************** 
 D|----------0-------------------------------0----------------------- 
 B|----------0-------------------------------0----------------------- 
F#|----------0-------------------------------0----------------------- 
 C|-4---4--4----4---4--4-4/7--7--7--6---6--6----6---6--6-6\4--4--4--- 
 G|------------------------------------------------------------------ 
 C|-4---4--4----4---4--4-4/7--7--7--6---6--6----6---6--6-6\4--4--4--- 
 D|-----------0------------------------------------------------------------- 
 B|-----------0------------------------------------------------------------- 
F#|-----------0------------------------------------------------------------- 
 C|-4/7--7--7----7--7--7-7\4--4--4--4/6---6--6--6-0--0--0-6-0--0--0--0-6h7\- 
 G|---------------------------------------------6-0--0--0-6-0--0--0--0-6h7\- 
 C|-4/7--7--7----7--7--7-7\4--4--4--4/6---6--6--6-0--0--0-6-0--0--0--0-6h7\- 
 D|----------0-------------------------------0-------------------0---- 
 B|----------0-------------------------------0-------------------0---- 
F#|----------0-------------------------------0-------------------0---- 
 C|-4---4--4----4---4--4-4/7--7--7--6---6--6----6/11---9---7---7------ 
 G|-4----------------------------------------------------------------- 
 C|-4---4--4----4---4--4-4/7--7--7--6---6--6----6/11---9---7---7------ 
 D|-----------------------0----------0------------- 
 B|-----------------------0----------0------------- 
F#|-----------------------0----------0------------- 
 C|-7\4--4--4--4/6---6--6-----\2--2-----2---------- 
 G|------------------------------------------------ 
 C|-7\4--4--4--4/6---6--6-----\2--2-----2---------- 
**************************************************************************** 
**************************************************************************** 
 The overlayed harmonics bit. the whole lot of it.  
 the main guitair line follows 
 D|-<12>----------<7>--------<12>-----------------------<7>--------<12>--------- 
 B|-----<12>---------<7>---------<12>----------<12><7>---------<12>------------- 
F#|---------<12>--------<7>---------<12>---<12>------------<12>--------<7>------ 
 C|----------------------------------------------------------------------------- 
 G|----------------------------------------------------------------------------- 
 C|----------------------------------------------------------------------------- 
   Clean - Play Softly 
   5:55 
 D|----------0-------------------------------0----------------------- 
 B|----------0-------------------------------0----------------------- 
F#|----------0-------------------------------0----------------------- 
 C|-4---4--4----4---4--4-4/7--7--7--6---6--6----6---6--6-6\4--4--4--- 
 G|------------------------------------------------------------------ 
 C|-4---4--4----4---4--4-4/7--7--7--6---6--6----6---6--6-6\4--4--4--- 
 D|-----------0--------------------------------0------------- 
 B|-----------0--------------------------------0------------- 
F#|-----------0--------------------------------0------------- 
 C|-4/7--7--7----7--7--7-7\4--4--4--4/6---6--6------6--6/7--- 
 G|---------------------------------------------------------- 
 C|-4/7--7--7----7--7--7-7\4--4--4--4/6---6--6------6--6/7--- 
 D|----------0-------------------------------0-------------------0---- 
 B|----------0-------------------------------0-------------------0---- 
F#|----------0-------------------------------0-------------------0---- 
 C|-4---4--4----4---4--4-4/7--7--7--6---6--6----6/11---9---7---7------ 
 G|------------------------------------------------------------------- 
 C|-4---4--4----4---4--4-4/7--7--7--6---6--6----6/11---9---7---7------ 
 D|-------------------------------------------0---------- 
 B|-------------------------------------------0---------- 
F#|-------------------------------------------0---------- 
 C|-7\4--4--4--4/6---6--6-----\2--2------2//--11--------- Hold Chord 
 G|-------------------------------------------11--------- 
 C|-7\4--4--4--4/6---6--6-----\2--2------2//--11--------- 
                                              Slow strum 
 * The noise outro is done on the delay pedal, somehow.. ay *