Australia 
My Enemy by COG  
Tuning:  * N.B proper strumming pattern not shown  
Main/Chorus Riff {heavy distortion}  
|-------------------| |----------------------------------------|  
|------5---5--6--5--| |------------------5---5--5--5--5--5--5--|  
|------5---5--5--5--| |------------------5---5--5--5--5--5--5--|  
|--3---3---3--3--3--| |--3\5--5--5---0---0---0--0--0--0--0--0--|  
|--3---3---3--3--3--| |--3\5--5--5---0---0---0--0--0--0--0--0--|  
|--3---3---3--3--3--| |--3\5--5--5---0---0---0--0--0--0--0--0--|  
(repeat above three times)  
AFTER SECOND TIME OF PLAYING ABOVE ADD THIS LEAD BIT  
|--------------|  
|--8--6--5-----|  
|-----------5--|  
|--------------|  
|--------------|  
|--------------|  
Pre Verse Fill {slight distortion}  
|--------------------------------------------------|  
|--6--6--6--6--6--6--6--6--5--5--5--5--5--5--5--5--|  
|--5--5--5--5--5--5--5--5--5--5--5--5--5--5--5--5--|  
|--------------------------------------------------|  
|--------------------------------------------------|  
|--------------------------------------------------|  
Verse 1 {clean}  
|-------------------------------------------------|  
|--------5--5----------------8--------0--5-----5--|  
|-----5--------5----------7--------5--------5-----|  
|--3--------------3/5--5--------0-----------------|  
|-------------------------------------------------|  
|-------------------------------------------------|  
Main/Chorus Riff  
Verse 2 {slight distortion with echo)  
|-------------------------------------|  
|--11-11-----10-10---13--13-----8--8--|  
|--10-10-----9--9----12--12-----7--7--|  
|--8--8------7--7----10--10-----5--5--| x 2  
|-------------------------------------|  
|-------------------------------------|  
(next bit with tremelo picking I think) {heavy distortion}  
|-----------------------------------------------------|  
|-----------------------------------------------------|  
|-----------------------------------------------------|  
|-----------------------------------------------------| x 2  
|-----------------------------------------------------|  
|-88888888888777777777771010101010101010555555555555--|  
Pre Verse Fill (bend last note)  
Main/Chorus Riff  
Outro {slight distortion with echo}  
|--------------| |--------------|  
|-----8--5-----| |-----8--5-----|  
|-----------5--| |-----------5--|  
|--------------| |--0-----------|  
|--8-----------| |--------------|  
|--------------| |--------------|  
|--------------| |-----------------|  
|-----8--5-----| |-----------------|  
|-----------5--| |-----------------|  
|--------------| |--3---3---3---3--|  
|--8-----------| |--3---3---3---3--|  
|--------------| |--3---3---3---3--|  
Any feedback email me at [email protected] Cheers Cog for the great song!!