Transcribed by Paul @ OzTabs ([email protected]) 
I think that Cog would play this song tuned down 1/2 
a step - but I think it's easier to drop d your guitar 
and play it in dropped  (yeh - i'm a lazy guitar tuner). 
Here's the main riffs of the song. Comments & corrections  
are welcome! 
P.M. = Palm Mute  
/ = slide  
Tune guitar to DADGBE 
BASS INTRO FOR GUITAR 
E-|--------------------------------|- 
B-|--------------------------------|- 
G-|--------------------------------|- 
D-|--------------------------------|- 
A-|--------------------------------|- 
D-|-/3---1----4-3---1----4-3-(etc)-|- 
WAH WAH NOTES: 
   () 
E-|---------------|- 
B-|---------------|- 
G-|-10--10--10-10-|- 
D-|---------------|- 
A-|-8---8---8--8--|- 
D-|---------------|- 
(1:03) 
E-|---------------------------------------------|- 
B-|---------------------------------------------|- 
G-|---------------------------------------------|- 
D-|-3--1--3---3-3-3-1-3---3-3-3-1-3---3-3-3-1-3-|- 
A-|-3--1--3---3-3-3-1-3---3-3-3-1-3---3-3-3-1-3-|- 
D-|-3--1--3---3-3-3-1-3---3-3-3-1-3---3-3-3-1-3-|- 
E-|------------------------------------------------------------|- 
B-|------------------------------------------------------------|- 
G-|------------------------------------------------------------|- 
D-|-3-3--------------------------------------------------------|- 
A-|-3-3--------------------------------------------------------|- 
D-|-3-3-3--1--3--1-3-1---3--1--3--1-3/4-1---3--1--3--1-3-1--3~-|- 
(1:21) 
    P.M._____________        P.M._____________ 
E-|-------------------------------------------------|- 
B-|-------------------------------------------------|- 
G-|--------------------------------------------8--8-|- 
D-|-10-10-10-10-10-10-11-11--10-10-10-10-10-10------|- 
A-|-8--8--8--8--8--8--8--8---8--8--8--8--8--8--8--8-|- 
D-|-------------------------------------------------|- 
(1:50) 
E-|---------------------------------------------|- 
B-|---------------------------------------------|- 
G-|---------------------------------------------|- 
D-|-3--1--3---3-3-3-1-3---3-3-3-1-3---3-3-3-1-3-|- 
A-|-3--1--3---3-3-3-1-3---3-3-3-1-3---3-3-3-1-3-|-(etc) 
D-|-3--1--3---3-3-3-1-3---3-3-3-1-3---3-3-3-1-3-|- 
(2:05) 
E-|--------------------------------------------------------|- 
B-|--------------------------------------------------------|- 
G-|-/10-10-10-10-\8--8--8--8--/10-10-10-10-/13--13--12--12-|- 
D-|--------------------------------------------------------|- 
A-|-/8--8--8--8--\6--6--6--6--/8--8--8--8--/11--11--10--10-|- 
D-|--------------------------------------------------------|- 
(2:12) 
    P.M._____________        P.M._____________ 
E-|-------------------------------------------------|- 
B-|-------------------------------------------------|- 
G-|--------------------------------------------8--8-|- 
D-|-10-10-10-10-10-10-11-11--10-10-10-10-10-10------|- 
A-|-8--8--8--8--8--8--8--8---8--8--8--8--8--8--8--8-|- 
D-|-------------------------------------------------|-