The Truth And Other Lies

Cog

Get The Truth And Other Lies chords

  			Part : Guitar 
Tuning: CGCFAD 
Tabbed: Sam Price aka Bluey 
Email :  
Visit : www.tooltabs.net/cog/ 
Legend 
nh - natural harmonic   ph - pinch harmonic 
pm - palm mute          x - muted string 
h - hammer on           p - pull off 
\\ - slide down         // - slide up 
b - bend                ~~ - vibrato 
<7> - natural harmonic  x/// - pick scrape (directions same as slide) 
~ - sustain 
* let open  string ring throughout * 
D-------------------- 
A-------------------- 
F---0---------0------ 
C-7---8-7---7---8-7-- 
G-------------------- 
C-------------------- 
D-----|-----------------------------------------| 
A-----|-----------------------------------------| 
F-----|---0---0-------0--------0----------------| 
C-1-3-|-5---5----3/8----5--3/8---5---10--8--7---| 
G-----|-----------------------------------------| 
C-----|-----------------------------------------| 
D-----------------------------------------| 
A-----------------------------------------| 
F---0---0-------0--------0----------------| 
C-5---5----3/8----5--3/8---5---10--8--3---| 
G-----------------------------------------| 
C-----------------------------------------| 
D------------------------------------------| 
A------------------------------------------| 
F---0---0-------0---------0----0---0-------| 
C-5---5----3/8----5--3/13---13--13---13-13-| 
G------------------------------------------| 
C------------------------------------------| 
D-------------------- 
A-------------------- 
F---0---------0------ 
C-7---8-7---7---8-7-- 
G-------------------- 
C-------------------- 
D-----|-----------------------------------------| 
A-----|-----------------------------------------| 
F-----|---0---0-------0--------0----------------| 
C-1-3-|-5---5----3/8----5--3/8---5---10--8--7---| 
G-----|-----------------------------------------| 
C-----|-----------------------------------------| 
D-----------------------------------------| 
A-----------------------------------------| 
F---0---0-------0--------0----------------| 
C-5---5----3/8----5--3/8---5---10--8--3---| 
G-----------------------------------------| 
C-----------------------------------------| 
D------------------------------------------| 
A------------------------------------------| 
F---0---0-------0---------0----0---0-------| 
C-5---5----3/8----5--3/13---13--13---13-13-| 
G------------------------------------------| 
C------------------------------------------| 
D---------------------|  
A---------------------|  
F---------------------|  
C-5---8-7---5---8-7---|  
G---5-----5---5-----5-| 
C---------------------| 
 pm................... 
D--------------------------------------  
A-------------------------------------- 
F-0-0-0---0-0-0---0-0-0---0-0-0-3-2---- 
C-1-1-1---1-1-1---1-1-1---1-1-1-----0-- 
G-------------------------------------- 
C-------------------------------------- 
Distortion 
                       x3| 
D------------------------|----------------------------| 
A------------------------|----------------------------| 
F---0-----0--0---0-----0-|---0-----0------------------| 
C-7---7-8------7---7-8---|-7---7-8----0-7--5-7-8-8p0--| 
G------------------------|------------0-7--5-7-8-8p0--| 
C------------------------|------------0-7--5-7-8-8p0--| 
          x3|           |         x2|           |            | 
D-----------|-----------|-----------|-----------|------------| 
A-----------|-----------|-----------|-----------|------------| 
F-----------|-----------|-----------|-----------|------------| 
C-5p0-8p7p0-|-5p0-1h3p0-|-5h0-8p7p0-|-5p0-1h3p0-|-5p0-8h10p0-| x2 
G-5p0-8p7p0-|-5p0-1h3p0-|-5h0-8p7p0-|-5p0-1h3p0-|-5p0-8h10p0-| 
C-5p0-8p7p0-|-5p0-1h3p0-|-5h0-8p7p0-|-5p0-1h3p0-|-5p0-8h10p0-| 
                               x2|       x3| 
D--------------------------------|---------|--------| 
A--------------------------------|---------|--------| 
F--------------------------------|---------|--------| 
C-3--1--/12--12---3--1--/13--12--|-1-1-1---|-3--3---| 
G-3--1--/12--12---3--1--/13--12--|-1-1-1---|-3--3---| 
C-3--1--/12--12---3--1--/13--12--|-1-1-1---|-3--3---| 
                               x2|              x4| 
D--------------------------------|----------------| 
A--------------------------------|----------------| 
F--------------------------------|----------------| 
C-3--1--/12--12---3--1--/13--12--|-3--1--/12--12--| 
G-3--1--/12--12---3--1--/13--12--|-3--1--/12--12--| 
C-3--1--/12--12---3--1--/13--12--|-3--1--/12--12--| 
D---------------| 
A---------------| 
F---------------| 
C-1-------1--3--| x4 
G-1-3/5\3-1--3--| 
C-1-------1--3--| 
D---------------------------------| 
A---------------------------------| 
F---------------------------------| 
C-ph-----------------------1------| x2 
G-3---/5-5-3--3---/5-5-3---1------| 
C---1-----------1----------1------| 
* "Solo" * 
Delay On, Use Wah.. or something 
D---------------------------| 
A-----6--8--6------6-8------| 
F-/7------------7------5--5-| 
C---------------------------| x4 
G---------------------------| 
C---------------------------| 
D-------------------------| 
A-----6-8-/10--8--6-------| 
F-/7---------------7-5--5-| 
C-------------------------| x2 
G-------------------------| 
C-------------------------| 
D-/10--8-----------------| 
A--------10-8--10--8\6---| 
F----------------------7-| 
C------------------------| 
G------------------------| 
C------------------------| 
D--------------------5--6--| 
A-----6-8-6-8/10-----------| 
F-/7--------------7--------| 
C--------------------------| 
G--------------------------| 
C--------------------------| 
Delay Off 
 Outro                 x15| 
D-------------------------|------------------------- 
A-------------------------|------------------------- 
F---0----------0----------|---0----------0-----0---- 
C-7---7-8-7--7---7-8-7--7-|-7---7-8-7--7---7-8-5---- 
G-------------------------|------------------------- 
C-------------------------|-------------------------